Blink 182 - Not Now Chords & Tabs

 

Not Now Chords & Tabs

Blink 182 Chords & Tabs

Version: 2 Type: Bass Tab 0 ratings
1 star 2 stars 3 stars 4 stars 5 stars
comments

Not Now Bass Tab

Blink 182
Not Now
tabbed by Daniel182

this is my favourite song off the new album...im sure this is how its played
please rate this tab!

Intro(00:50)
|-----------------------------------|
|-----------------------------------|
|-222-555-00000000------------------|x4
|-----------------3333-5-3-22222222-|

Verse(01:08)
|--------------|
|--------------|
|-5~~~~~~~~~~~-|x4
|--------------|

Pre Chorus(01:26)
|----------------------------------------------------------------|
|----------------------------------------------------------------|
|-555555555555-7777777777777777----------------------------------|x2
|------------------------------2222222222222222-3333333333333333-|

Chorus(01:44)
|-----------------------------------------------|
|-----------------------------------------------|
|-/55555555554-00000000054/22222222254--------5-|x1
|-------------------------------------33333333--|

Pre Verse(01:53)
|-----------------------------------|
|-----------------------------------|
|-222-555-00000000------------------|x2
|-----------------3333-5-3-22222222-|

Verse(02:02)
|--------------|
|--------------|
|-5~~~~~~~~~~~-|x4
|--------------|
[ Tab from: http://www.guitartabs.cc/tabs/b/blink_182/not_now_btab_ver_2.html ]
Chorus(02:20)
|---------------------------------------------------------|
|---------------------------------------------5555-5h7p5--|
|-/55555555554-00000000054/22222222254--------------------|x1
|-------------------------------------33333333------------|

then...

|--------------------------------------------------------|
|--------------------------------------77777777-55555555-|
|-/55555555554-00000000054/22222222254-------------------|x1
|--------------------------------------------------------|

Bridge(02:39)
|----|   |-----------------------------------|
|----|   |-----------------------------------|
|-5~-|x1 |-222-555-00000000------------------|x4
|----|   |-----------------3333-5-3-22222222-|

Chorus(03:01)(do this sequence twice)
|------------------------------------------------------------------|
|------------------------------------------------------5555-5h7p5--|
|-/55555555555554-00000000000054/22222222222254--------------------|x1
|----------------------------------------------33333333------------|

|-----------------------------------------------------------------|
|-----------------------------------------------77777777-55555555-|
|-/55555555555554-00000000000054/22222222222254-------------------|x1
|-----------------------------------------------------------------|

Outro(03:37)
|-----------------------------------|  |----------|
|-----------------------------------|  |----------|
|-222-555-00000000------------------|x4|-2~-5~-0~-|x1
|-----------------3333-5-3-22222222-|  |----------|

thats it! and thats how its played....im sure of it! please rate this, thanks!
Comments