Blink 182 - Mutt Chords & Tabs

 

Mutt Chords & Tabs

Blink 182 Chords & Tabs

Version: 9 Type: Tab 0 ratings
1 star 2 stars 3 stars 4 stars 5 stars
comments

Mutt Tab

Blink 182 - Mutt
Enema of the State
American Pie(soundtrack)
Tabbed By:Mike,hawker489@aol.com
Standard Tuning

Intro
e---------------------
B---2----2----2----2--
G--2----2----2----2---
D------2----2----2----
A---------------------
E---------------------

Verse
e--------------------------------------------------
B----------------------------2----2----------------
G----2----2----2/4----2/4--------------2/4----2/4--
D-------------------------00---00---00-----00------
A-00---00---00-----00------------------------------
E--------------------------------------------------

Chorus
e------------------------------------
B------------------------------------
G------------------------------------
D-7-7-7-7-7-7-7-7--4-4-4-4--2-2-2-2--
A-7-7-7-7-7-7-7-7--4-4-4-4--2-2-2-2--
E-5-5-5-5-5-5-5-5--2-2-2-2--0-0-0-0--

play twice then:

e--------------------------------
B--------------------------------
G-7-7-7-7-7-7-7-7-7-7-7-9-9-9-9--
D-7-7-7-7-7-7-7-7-7-7-7-9-9-9-9--
A-5-5-5-5-5-5-5-5-5-5-5-7-7-7-7--
E--------------------------------
[ Tab from: http://www.guitartabs.cc/tabs/b/blink_182/mutt_tab_ver_9.html ]
Interlude
e----------------------------------------------------
B----------------------------------------------------
G----------------------------------------------------
D----------------------------------------------------
A-0--0-0-7/9/7--0--0-0-7/9/7--2-22-5-2--4/555-5/777--
E----------------------------------------------------
The bas also plays this part, just so you don't get
confused. But the guitar also does.

or

e-------------------------------------------
B-------------------------------------------
G-------------------------------------7--6--
D-7--7-7-777--7--7-7-777--9--9-9-999--7--6--
A-7--7-7-777--7--7-7-777--9--9-9-999--5--4--
E-5--5-5-555--5--5-5-555--7--7-7-777--------

(Intro)
(Verse)
(Chorus)
(Interlude)

Outro-palm mute
e----------------------
B----------------------
G----------------------
D-------4-4---7-7-6-6--
A-7-7---2-2---5-5-4-4--
E-5-5------------------

(Intro)
(Interlude)
(Outro)/not palm muted

I know the Intro may lok a little wierd, but you really
need to listen to the song to understand it, and it
sounds perfect when you get the bass in there. It may
sound wierd without a bass, but believe me it's right.

Also the second version of the Interlude it easier to
play. You have to be pretty fast in order to play the
first one.
Comments