Blink 182 - Mutt Chords & Tabs

 

Mutt Chords & Tabs

Blink 182 Chords & Tabs

Version: 8 Type: Tab 0 ratings
1 star 2 stars 3 stars 4 stars 5 stars
comments

Mutt Tab

Blink 182, Mutt.
 Tabbed by sean.
  
Intro
e-------------------------
B---2-------2-------------   THE CHANGE IN SOUND THAT
G-2-------2---------------   YOU HEAR IS DONE BY BASS,
D-----2-------2------------  THIS IS ALL THAT GUITAR
A-------------------------   DOES
E--------------------------
[ Tab from: http://www.guitartabs.cc/tabs/b/blink_182/mutt_tab_ver_8.html ]
VERSE
e----------------------------------------------------
B----------------------------------------------------
G------2-------2-------2h4------2h4--------6-------6-
D----------------------------------------------------
A--0-0----0-0------0-0------0-0-------4-4-----4-4----
E----------------------------------------------------
   PM=    ===      ===      ===       ===     ===
e---------------------
B---------------------
G-----2h4------2h4----
D-2-2------2-2--------
A---------------------
E---------------------
  PM=      ===
e----------------------------------------------------
B----------------------------------------------------
G-22222------------22222--------------77777777-999---
D-22222--444--222--22222--444--222----77777777-999---
A-00000--444--222--00000--444--222----55555555-777---
E--------222--000---------222--000-------------------

CHORUS(THIS PART ALSO SOUNDS LIKE THERE IS MORE GOING ON FOR GUITAR BUT IT IS MOSTLY BASS, GUITAR JUST DOES:
e---------------------------------
B---------------------------------
G---------------------------------
D--7777-7777--77--77-------------
A--XXXX-XXXX--55--44---------------
E--5555-7777----------------------

LITTLE PALM MUTE THINGY
e-------------------------------------         
B-----------------------------------
G----------------------------------
D------------77--66------------------
A--77----99--55--44-------------------
E--55----77--------------------------
   PM    PM  PM  PM

ENDING
e--------------------------------------
B--------------------------------------
G--2--4---7-6--2--4--7-6---2----------
D--2--4---7-6--2--4--7-6---2-----------
A--0--2---5-4--0--2--5-4---0-----------
E-------------------------------------- 
:: Ultimate Guitar Archive :: 
http://www.ultimate-guitar.com 



Comments