Blink 182 - Mutt Chords & Tabs

 

Mutt Chords & Tabs

Blink 182 Chords & Tabs

Version: 4 Type: Tab 0 ratings
1 star 2 stars 3 stars 4 stars 5 stars
comments

Mutt Tab

You guys really need to work on your Blink tabs...the are terrible...
I got sick of looking at bogus Blink tabs so I did Dumpweed and now
Mutt needs a little work

Intro:
e|----------------------------
b|---2-----2------------------
g|-2-----2--------------------
d|-----2-----2----------------
a|----------------------------
E|----------------------------
Just that over and over again...no dropping to 0


Verse:
P.M.-|   |-|   |-|     |-|     |-|   |-|    |-|      |-|
e|--------------------------------------------------------------
b|-----2-----2-----2/4----2/4------6-----6-------2/4-----2/4----
g|------------------------------------------2-2------2-2--------
d|-0-0---0-0---0-0-----0-0-----0-4---4-4------------------------
a|--------------------------------------------------------------
E|--------------------------------------------------------------
Repeat as needed...(basically palm mute everything on d and g)
[ Tab from: http://www.guitartabs.cc/tabs/b/blink_182/mutt_tab_ver_4.html ]
Then there's this part: "He's not that old I've been told..."
e|------------------------------------------
b|------------------------------------------ Repeat this for "He goes out
g|-2---------------------------------------- every day"
d|-2-x12--4-----2---------------------------
a|-0------4-x6--2-x6------------------------
E|--------2-----0---------------------------

Then: "Yeah..they dont even care at all"
e|---------------------------------------
b|---------------------------------------
g|--------------------------------------- Repeat this for the chorus:
d|-7------7-----7-----7------------------ "She's open waiting for more..."
a|-X-x12--X-x6--5-x3--4-x----------------
E|-5------7------------------------------

Thats about it...I know there won't be any corrections b/c its 100%...but,
if you beg to differ...u shouldnt b/c its right...look at all my other tabs...
100% just like this one...Blnk182ModenaF50@aol.com
Comments