Blink 182 - Mutt Chords & Tabs

 

Mutt Chords & Tabs

Blink 182 Chords & Tabs

Version: 14 Type: Tab 0 ratings
1 star 2 stars 3 stars 4 stars 5 stars
comments

Mutt Tab

   
Tabbed by Cheyenne Dreaver
email my at nomnom_@hotmail.com if you have any questions
standard tuning:e,b,g,d,a,e

Chords
a,b,C#,F#,e,d

Intro

e|---------------------------------------------------|
b|---------------------------------------------------|
g|--666--666--666--666-77-666-77-666-77-666-77-666---|
d|--777--777--777--777-77-777-77-777-77-777-77-777---|
a|77---77---77---77----55-----55-----55-----55-------|
e|55---55---55---55----------------------------------|
repeat this two times
[ Tab from: http://www.guitartabs.cc/tabs/b/blink_182/mutt_tab_ver_14.html ]
Verse 1
this means mute:*, this means slide:s, this means pull up: pu
e|---------------------------------------------------|
b|---------------------------------------------------|
g|---------------------------------------------------|
d|----7----7----7----7s-9-11s-10-9pu-99--------------|
a|*7*7-*7*7-*7*7-*7*7----*11--------*7*7-------------|
e|*5*5-*5*5-*5*5-*5*5-----*9--------*7*7-------------|
repeat twice then place these chords,( I won't say how long you play them for, but when 
play the B, its just the A, going to B, then to D, so you aren't really going to strum 
alot(the b))
a,b,d,C#,a,F#,e

prechorus
e|---------------------------------|
b|---------------------------------|
g|7777777777777777-9999999999999999
d|*********************************
a|5555555555555555-7777777777777777
e|---------------------------------

Chorus
e|-------------------------------------------|
b|-------------------------------------------|
g|-------------------------------------------|
d|77---7---77---7---999999-12-1212-11-1111---|
a|77--7-7--77--7-7--999999-12-1212-10-1010---|
e|55-5---5-55-5---5-777777-10-1010-9--9-9----|
repeat this 6 times

then play the Intro twice

Verse2
same as verse1

prechorus

chorus

Bridge

e|------------------------|
b|------------------------|
g|------------------------|
d|*7*7-*9*9-*12*12-*10*10-|
a|*7*7-*9*9-*12*12-*10*10-|
e|*5*5-*7*7-*10*10-*9-*9--|
(still bridge part)
e|-------------------------|
b|-------------------------|
g|--666--666-77-666-66-666-|
d|--777--777-77-777-66-777-|
a|77---77----55-----44-----|
e|55---55------------------|
repeat twice

chorus

End
e|-------------|
b|-------------|
g|-------------|
d|7-9-12-11----|
a|7-9-12-11----|
e|5-7-10-9-----|
repeat twice
and thats the song, well to me anyways, hope you have fun with it
Comments