Blink 182 - Mutt Chords & Tabs

 

Mutt Chords & Tabs

Blink 182 Chords & Tabs

Version: 13 Type: Tab 0 ratings
1 star 2 stars 3 stars 4 stars 5 stars
comments

Mutt Tab

intro:
e|---------------------|
B|---------------------|
G|---6-----6------6----|
D|-7-----7------7------| 
E|---------------------|

e|----------------------------------------------------------
B|----------------------------------------------------------
G|-----2-----2-----2h4------2h4-----6------6------2h4----2h4
D|--------------------------------------------2-2-----2-2---
A|-3-4---0-0---0-0-----0-0------4-4----4-4------------------
[ Tab from: http://www.guitartabs.cc/tabs/b/blink_182/mutt_tab_ver_13.html ]
e|-------------------------------------------------
B|-------------------------------------------------
G|-------------------------------------------------
D|-222222-0-4444-0-2222-0-22222-0-44444-0-222------
A|-000000-0-4444-0-2222-0-00000-0-44444-0-222------
E|--------0-2222-0-0000-0-------0-22222-0-000------
cont.
e|---------------------|
B|---------------------|
G|---------------------|
D|-777777-77/99999-----|
A|-555555-55/77777-----|
E|---------------------|
after that:
e|----------------------------|
B|----------------------------|
G|----------------------------|
D|-77-7-7777-77777-777-777----|
A|-00-0-0000-00000-555-444----|
E|-----------77777------------|
"she´s open waiting for more...."

 kind of interlude:
e|-----------------------|
B|-----------------------|
G|-----------------------|
D|-77---99---77-66-------|
A|-77---99---55-44-------|
E|-55---77---------------|


e|-----------------|
B|-----------------|
G|--------77-66----|
D|-22~44~-77-66----|   2x
A|-00~22~-55-44----|
E|-----------------|


e|------|
B|------|
G|-2~---|
D|-2~---|
A|-0~---|
E|------|
Comments