Blink 182 - Mutt Chords & Tabs

 

Mutt Chords & Tabs

Blink 182 Chords & Tabs

Version: 10 Type: Tab 0 ratings
1 star 2 stars 3 stars 4 stars 5 stars
comments

Mutt Tab

BAND  BLINK 182
ALBUM  ENEMA OF THE STATE
SONG  MUTT
TABBED BY  AVE (E-mail any questions/comments to B2ave@hotmail.com)
This is guaranteed 100% correct, I promise you.

Intro 
e|---------------------------------------------------------------------------
B|-----2--------2--------2--------2--------2--------2--------2-----------2---
G|--2--------2--------2--------2--------2--------2--------2-----2-----2------
D|--------2--------2--------2--------2--------2--------2-----------2--------2
A|---------------------------------------------------------------------------
E|---------------------------------------------------------------------------

Verse (Part 1) x2
PM~~~~~~~~~~~~~~~~~~~~~~~~~~~~~~~~~~~~~~~~~~~~~~~~~~~~~~~~~~~~~~~~~~~~~~~~~~~
e|---------------------------------------------------------------------------
B|---------------------------------------------------------------------------
G|---------------------------------------------------------------------------
D|-------2-------2-------2^4-------2^4-------6-------6-------2^4-------2^4---
A|--0-0-----0-0-----0-0-------0-0-------0-4-----0-4-----2-2-------2-2--------
E|---------------------------------------------------------------------------

Verse (Part 2) 
e|---------------------------------------------------------------------------
B|---------------------------------------------------------------------------
G|-2-2-2-2-2-2-2-2-----------------2-2-2-2-2-2-2-2-----------------7-7-7-7---
D|-2-2-2-2-2-2-2-2-4-4-4-4-2-2-2-2-2-2-2-2-2-2-2-2-4-4-4-4-2-2-2-2-7-7-7-7---
A|-0-0-0-0-0-0-0-0-4-4-4-4-2-2-2-2-0-0-0-0-0-0-0-0-4-4-4-4-2-2-2-2-5-5-5-5---
E|-----------------2-2-2-2-0-0-0-0-----------------2-2-2-2-0-0-0-0-----------
[ Tab from: http://www.guitartabs.cc/tabs/b/blink_182/mutt_tab_ver_10.html ]
e|---------------------------------------------------------------------------
B|---------------------------------------------------------------------------
G|-7-7-7-7-7-7-7-7-9-9-9-9---------------------------------------------------
D|-7-7-7-7-7-7-7-7-9-9-9-9---------------------------------------------------
A|-5-5-5-5-5-5-5-5-7-7-7-7---------------------------------------------------
E|---------------------------------------------------------------------------

Interlude 
e|---------------------------------------------------------------------------
B|---------------------------------------------------------------------------
G|---------------------------------------------------------------------------
D|-7-7-7-7-7-7--7-7-7-7-7-7--7-7-7-7-7-7--7-7-7-7-7-7------------------------
A|-x-x-x-x-x-x--x-x-x-x-x-x--x-x-x-x-x-x--5-5-5-4-4-4------------------------
E|-5-5-5-5-5-5--5-5-5-5-5-5--7-7-7-7-7-7-------------------------------------

Interlude 2
PM~~~~~~~~~~~~~~~~~~~~~~~~~~~~~~~~~~~~~~~~~~~~~~~~~~~~~~~~~~~~~~~~~~~~~~~~~~~
e|---------------------------------------------------------------------------
B|---------------------------------------------------------------------------
G|---------------------------------------------------------------------------
D|--------------------------------------7--7------6--6-----------------------
A|----7--7------------------9--9--------5--5------4--4-----------------------
E|----5--5------------------7--7---------------------------------------------

Outro
e|---------------------------------------------------------------------------
B|---------------------------------------------------------------------------
G|--2--2--------------------4--4---------------------------------------------
D|--2--2--------------------4--4--------7--7------7--7-----------------------
A|--0--0--------------------2--2--------5--5------4--4-----------------------
E|---------------------------------------------------------------------------


End on
e|---------
B|---------
G|--2------
D|--2------
A|--0------
E|---------





INTRO         X2
VERSE(PART 1)
VERSE(PART 2)
INTERLUDE 1   X6
INTRO         X2   
VERSE(PART 1)
VERSE(PART 2)
INTERLUDE 1   X6
INTERLUDE 2   X2
INTRO         X1
INTERLUDE     X4
OUTRO         X2
Comments