Blink 182 - Mutt Chords & Tabs

 

Mutt Chords & Tabs

Blink 182 Chords & Tabs

Version: 1 Type: Tab 0 ratings
1 star 2 stars 3 stars 4 stars 5 stars
comments

Mutt Tab

FIRST OF ALL ALL THE OTHER VERSIONS I HAVE HEARD OF THIS SONG IS WRONG.
THIS IS THE RIGHT WAY TO PLAY IT

INTRO
-----------------------------
---2----2-----2-----2-----2--
-2----2-----2-----2-----2----
----2-----2-----2-----2-----2
-----------------------------
-----------------------------
[ Tab from: http://www.guitartabs.cc/tabs/b/blink_182/mutt_tab.html ]
VERSE (x2)
------------------------------------------------------
----------------------------------2----2--------------
----2-----2-----2/4-----2/4------------------4/2--4/2-
------------------------------------------------------
-----------------------------0-0---0-0---2-2----------
0-0---0-0---2-2-----2-2-------------------------------
        

CHORUS
-----------------------------------
-----------------------------------
---------------------7-7-7-7-7-----
-7-7-7-7-7-4-4-4-4-4-7-7-7-7-7-7---
-7-7-7-7-7-4-4-4-4-4-5-5-5-5-5-7---
-5-5-5-5-5-2-2-2-2-2-----------5---

Interlude 
------------------------
------------------------
----------7-7--6-6------
7-7--9-9--7-7--6-6--7-7-
7-7--9-9--5-5--4-4--7-7-
5-5--7-7------------5-5-

OUTRO
--------------
--------------
------7--6----
7--9--7--6--7-
7--9--5--4--7-
5--7--------5-

THAT IS IT!!!!!! HAVE FUN

Comments