Blink 182 - Mutt Chords & Tabs

 

Mutt Chords & Tabs

Blink 182 Chords & Tabs

Version: 1 Type: Bass Tab 0 ratings
1 star 2 stars 3 stars 4 stars 5 stars
comments

Mutt Bass Tab

   
Song: Mutt	
Artist: Blink 182
Album: Enema of the State
Tabbed By: Robert Cooper (Agent19890@Aol.com)
H=Hammeron
P=Pulloff

Intro (Quickly)
G:------9----9----9----9----9----9----9----9-----------	
D:---77---77---77---77---77---77---77---77-------------	
A:-----------------------------------------------------
E:-----------------------------------------------------	

G:-----------------------------------------------------
D:------7----7----7----7----7----7----7----7-----------	
A:---55---55---55---55---55---55---55---55-------------	
E:-----------------------------------------------------

Interlude 1
G:-----------------------------------------------------
D:-----------------------------------4444-----2222-----
A:0000000000--2----4----5555555555---------------------
E:-----------------------------------------------------

Verse "He pauses shaving....."
G:-----------------------------------------------------
D:----------------------------4444---2222--------------
A:--000000000000000---2---4----------------------------
E:-----------------------------------------------------
[ Tab from: http://www.guitartabs.cc/tabs/b/blink_182/mutt_btab.html ]
Interlude 2 "Oh yeah"
G:-----------------------------------------------------
D:---------------------222222222-----------------------
A:---5555555555555-------------------------------------
E:-----------------------------------------------------

Chorus "She's open waiting for more...." and just before he starts singing  
G:-----------------------------------------------------
D:------2H4P2----------2H4P2---------44-------7--------
A:--00------------00--------------22--------5---5-777--
E:-----------------------------------------------------

Bridge
G:----|------------------------------------------------
D:----|------------------------------------------------
A:-00-|--22---55-44-00---------------------------------
E:----|------------------------------------------------

Outro
G:---|-------------------------------------------------
D:---|-------------------------------------------------
A:-0-|--2---5-4-0--------------------------------------
E:---|-------------------------------------------------

Intro-------X1
Interlude 1-X2
Verse-------X4
Interlude 2-X1
Chorus------X6
Interlude 1-X2
Verse-------X4
Interlude 2-X1
Chorus------X6
Bridge------X2
Chorus------X6
Outro-------X2

Comments