Blink 182 - Mms Chords & Tabs

 

Mms Chords & Tabs

Blink 182 Chords & Tabs

Version: 9 Type: Tab 0 ratings
1 star 2 stars 3 stars 4 stars 5 stars
comments

Mms Tab

   
Title: M&Ms
Artist: Blink 182
Album: Cheshire Cat

Transcribed by Adam Sanchez

Leave corrections, additions and/or comments at:
alvins52@hotmail.com
or just leave them in the comments/corrections box near the top of the page.

It's kinda sad how Tom goes from a really good guitarist (definitely not one
of the best) to what he's become now. They weren't kidding when they said
they've changed for their self-titled album.

There are at least 2 guitars in this song. The rhythm guitar obviously plays
the chords. The chord names are above the tabs so they are played with the lead.

HERE ARE THE CHORDS
  E5    B5    C#5   A5    F#5   E5ii
|---------------------------------|
|---------------------------------|
|-------4-----6-----2-----------9-|
|-2-----4-----6-----2-----4-----9-|
|-2-----2-----4-----0-----4-----7-|
|-0-----------------------2-------|


~      =  Hold note/chord
p      =  Pull off
PM...  =  Palm mute
\      =  Slide down

Here's the tab

Intro Pt 1:
(Drums)

Intro Pt 2:
|-0~-|
|-5~-|
|----|    (Not 100% sure about this)
|----|
|----|
|----|

Intro Pt 3:
    E5~                       B5~
|-0-4p0-5p0-7p0-5-4-5p4p2p0-|-2p0-4p0-5p0-4p0-2-p0-|
|---------------------------|----------------------|
|---------------------------|----------------------|
|---------------------------|----------------------|
|---------------------------|----------------------|
|---------------------------|----------------------|
    C#5~                      A5~
|-0-4p0-5p0-7p0-5-4-5p4p2p0-|-2p0-4p0-2p0-4p0-2p0-|
|---------------------------|---------------------|
|---------------------------|---------------------|
|---------------------------|---------------------|
|---------------------------|---------------------|    all x2
|---------------------------|---------------------|

Verse Pt 1:
|------------------|-----------------|
|------------------|-----------------|
|----9---9---9---9-|---9---9---9---9-|
|------------------|-----------------|
|--7---7---7---7---|-9---9---9---9---|
|------------------|-----------------|
   You and I should  get away for a
|------------------|-----------------|
|------------------|-----------------|
|----9---9---9---9-|---9---9---9---9-|
|--6---6---6---6---|-7---7---7---7---|
|------------------|-----------------|
|------------------|-----------------|
   while.
|------------------|-----------------|
|------------------|-----------------|
|----9---9---9---9-|---9---9---9---9-|
|------------------|-----------------|
|--7---7---7---7---|-9---9---9---9---|
|------------------|-----------------|
   I just wanna      be alone with your
|------------------|-----------------|
|------------------|-----------------|
|----9---9---9---9-|---9---9---9---9-|
|--6---6---6---6---|-7---7---7---7---|
|------------------|-----------------|
|------------------|-----------------|
   smile.
[ Tab from: http://www.guitartabs.cc/tabs/b/blink_182/mms_tab_ver_9.html ]
Verse Pt 2:
|-----------------------------------------------------------------|
|-----------------------------------------------------------------|
|-9-9-9-9-9-9-9-9-9-9-9-9-9-9-9-9-9-9-9-9-9-9-9-9-9---------------|
|-9-9-9-9-9-9-9-9-9-9-9-9-9-9-9-9-9-9-9-9-9-9-9-9-9---------------|
|-7-7-7-7-7-7-7-7-7-7-7-7-7-7-7-7-7-7-7-7-7-7-7-7-7-7-9---7-9-7-6-|
|-----------------------------------------------------------------|
  Buy some candy and cigarettes and we'll get in my car.
  We'll blast the stereo and we'll drive to Madagas-car because when

Chorus:
F#5      A5           E5                 B5
I'm with you, there's nothin' I wouldn't do.
F#5          A5           E5     B5
I just wanna be your only one.
F#5          A5         E5               B5
I'm graspin' at straws, thinkin' back to what I saw that
F#5                     A5            E5     B5x
night on the floor when we were all a-lone.

REPEAT INTRO PT 3

Verse Pt 1:
|------------------|-----------------|
|------------------|-----------------|
|----9---9---9---9-|---9---9---9---9-|
|------------------|-----------------|
|--7---7---7---7---|-9---9---9---9---|
|------------------|-----------------|
   My love           life was getting so
|------------------|-----------------|
|------------------|-----------------|
|----9---9---9---9-|---9---9---9---9-|
|--6---6---6---6---|-7---7---7---7---|
|------------------|-----------------|
|------------------|-----------------|
   bland.
|------------------|-----------------|
|------------------|-----------------|
|----9---9---9---9-|---9---9---9---9-|
|------------------|-----------------|
|--7---7---7---7---|-9---9---9---9---|
|------------------|-----------------|
   There are only    so many ways I can
|------------------|-----------------|
|------------------|-----------------|
|----9---9---9---9-|---9---9---9---9-|
|--6---6---6---6---|-7---7---7---7---|
|------------------|-----------------|
|------------------|-----------------|
   make love with my hand.

Verse Pt 2:
|-----------------------------------------------------------------|
|-----------------------------------------------------------------|
|-9-9-9-9-9-9-9-9-9-9-9-9-9-9-9-9-9-9-9-9-9-9-9-9-9---------------|
|-9-9-9-9-9-9-9-9-9-9-9-9-9-9-9-9-9-9-9-9-9-9-9-9-9---------------|
|-7-7-7-7-7-7-7-7-7-7-7-7-7-7-7-7-7-7-7-7-7-7-7-7-7-7-9---7-9-7-6-|
|-----------------------------------------------------------------|
  Sometimes it makes me want to laugh.
  Sometimes I wanna take my toaster in the          bath because when

REPEAT CHORUS

Bridge:

E5~     B5~     C#5~     A5~     E5~     B5~     C#5~     A5~
E5ii (this chord is played for about 22 seconds)

Outro:
I don't feel like putting the lead, which is Intro Pt 3 here so I'll
put the chords. Obviously, the chord changes are where each "measure" begins.

E5~           B5~             C#5~     A5~
Who's gonna   be the odd man  out.
I don't wanna be the odd man  out.
Is this       going to be the end
Or are you    going to        be my       new girlfriend?
END ON E5~

And there ya are...
Comments