Blink 182 - Mms Chords & Tabs

 

Mms Chords & Tabs

Blink 182 Chords & Tabs

Version: 8 Type: Tab 0 ratings
1 star 2 stars 3 stars 4 stars 5 stars
comments

Mms Tab

   
M&M'S - Blink 182

By Aaron...

Here's an attempt at that riff  (riff 1)

         
E-|-0-0-0-4-0-0-5-0-0-7-5-4-5-0---0-0-0-2-0-0-4-0-0-5-4-2-0-----------------
B-|-------------------------------------------------------------------------
G-|-------------------------------------------------------------------------
D-|-------------------------------------------------------------------------
A-|-------------------------------------------------------------------------
E-|-------------------------------------------------------------------------Here's the first part   of the verse (riff 2) you might 
wanna use pwr crds

         
E----------------------------------------------------------------------
B----------------------------------------------------------------------
G---9-9-9-9-9-9-9-9-9-9-9-9-9-9-9-9------------------------------------
D------------------6-6-6-6-7-7-7-7-------------------------------------
A--7-7-7-7-9-9-9-9-----------------------------------------------------
E----------------------------------------------------------------------

And the 2nd part (riff 3) hit the power chord then play 
the riff

         
E-|-------------------------------------------------------------------------
B-|-------------------------------------------------------------------------
G-|-9-----------------9-----------------------------------------------------
D-|-9-----------------9-----------------------------------------------------
A-|-7----9-7-9-7-6-7--7---9-7-9-7-6-(go-right-into-chorus)------------------
E-|-------------------------------------------------------------------------


          intro: riff 1

          Verse1:

          riff 2 over this bassline:

          E                 B              C#      A

          You and I should get away for a while

          E                 B              C#      A

          I just wanna be alone with your smile

          play riff 2 here and same bassline          E                    B                   C#        A

          Grab some candy and cigarettes and we'll get in my car

          E                    B           C#             A

          We'll blast the stereo and we'll drive to Madagascar          Chorus:

                   F#        A         E               B

          Cuz when I'm with you there's nothing I wouldn't do

          F#    A       E         B

          I just wanna be yer only one

          F#            A       E                   B

          I'm grasping at straws thinking back to what i saw

          F#             A       E                   B
[ Tab from: http://www.guitartabs.cc/tabs/b/blink_182/mms_tab_ver_8.html ]
          that night on the floor when we were all alone          (play riff 1)

          now, same stuff... different words

          (riff2 over bassline)

          My love life was getting so bland

          There are only so many ways i can make love with my hand

          (riff 3 over same bassline)

          Sometimes it makes me want to laugh

          Sometimes i wanna take my toaster in the bath          

          interlude: EBC#A...E

          (riff one over bassline that goes over final verse)


====

Blink 182- M & M's
          Trancsribed by: Nick Di Claudio (ndiclaudio86@hotmail.com)
          
          Riff A- Bridge
          |-0-4p0-0-5p0-7p0-5-4-4h5p4p0-0-2p0-0-4p0-5p0-0-4-2--
          |----------------------------------------------------
          |----------------------------------------------------
          |----------------------------------------------------
          |----------------------------------------------------
          |----------------------------------------------------
          
          -0-4p0-0-5p0-7p0-5-4-4h5p4p0-2p0-0-4p0-0-2p0-4p0-0-4-2-|
          -------------------------------------------------------|
          -------------------------------------------------------|
          -------------------------------------------------------|
          -------------------------------------------------------|
          -------------------------------------------------------|
          
          Riff B1- Verse1 (4x each)
          |-----|-----|------|------|
          |-----|-----|------|------|
          |-----|-----|------|------|
          |---9-|---9-|----9-|----9-|
          |-7---|-9---|-11---|-12---|
          |-----|-----|------|------|
          ..m.....m.....m......m.....
          
          Riff B2- Verse2 (strum chords)
          |---------------------------|
          |---------------------------|
          |---------------------------|
          |-9---9----9----------------|
          |-7---9---11---7/9--7-9-7-6-|
          |---------------------------|
          
          Riff C- Chorus (strum chords without *)
          |-----------------|
          |-----------------|
          |-----4/9---------|
          |-4---------2---4-|
          |-4---2/7---2---4-|
          |-2---------0---2-|
          ......*...........
          
          Riff D1- Interlude1
          |---------------------|
          |---------------------|
          |-------4-----6-------|
          |-2-----4-----6-----7-|
          |-2-----2-----4-----7-|
          |-0-----------------5-|
          
          Riff D2- Interlude2
          |---------------------|
          |---------------------|
          |---------------------|
          |---------------------|
          |-2-2-2-2-2-2-2-2-2-2-|
          |---------------------|
          
          I'm sure all the riffs are pretty much correct. I saw other 
versions but the bridges were crap. It's actually not that hard to 
play, i got the hang of it in 2 minutes.
Comments