Blink 182 - Mms Chords & Tabs

 

Mms Chords & Tabs

Blink 182 Chords & Tabs

Version: 6 Type: Tab 0 ratings
1 star 2 stars 3 stars 4 stars 5 stars
comments

Mms Tab

Blink 182-M+Mīs
Cheshire Cat
~= Let ring 

Intro
e|4~--0-4-0-5-0-7-5-4-5-0-2-0-4-0-5-4-2-0-0- 
B|------------------------------------------ 
G|------------------------------------------ 
D|------------------------------------------ 
A|------------------------------------------ 
E|------------------------------------------ 


Verse   (Ska upstrokes)
e|---------------------------------- 
B|---------------------------------- 
G|-9-9-9-9-9-9-9-9-9-9-9-9-9-9-9-9-- 
D|-x-x-x-x-x-x-x-x-6-6-6-6-7-7-7-7-- 
A|-7-7-7-7-9-9-9-9------------------ 
E|---------------------------------- 


Verse 2
e|---------------------------------- 
B|-(X8)-----(X8)-------------------- 
G|-9---(X8)--9---------------------- 
D|-9----9----6----------------------
A|-7----9---------9-7-9-7-6-7------- 
E|---------------------------------- 

[ Tab from: http://www.guitartabs.cc/tabs/b/blink_182/mms_tab_ver_6.html ]
Chorus
e|------------------------------------------ 
B|------------------------------------------ 
G|----------------4444---------------------- 
D|-4444-7777-2222-4444---------------------- 
A|-4444-7777-2222-2222---------------------- 
E|-2222-5555-0000--------------------------- 

   

Interlude
e|------------------------------------------ 
B|----------------Repeat this a lot of times
G|-----4~--6~------------------|7|----------
D|-2~--4~--6~--7~--------------|7|---------- 
A|-2~--2~--4~--7~--------------|9|---------- 
E|-0~----------5~---------------------------

Intro    (X4)
Verse    (X2)
Verse 2  (X2) 
Chorus   (X4)
Intro    (X4)
Verse    (x2)
Verse 2  (X2)
Chorus   (X4)
Interlude(X2)
Outro/Intro(X8)

End with
e|------------------------------------------ 
B|------------------------------------------ 
G|------------------------------------------ 
D|-2~--------------------------------------- 
A|-2~--------------------------------------- 
E|-0~---------------------------------------

Thats the song.   have fun 
Comments