Blink 182 - Mms Chords & Tabs

 

Mms Chords & Tabs

Blink 182 Chords & Tabs

Version: 10 Type: Tab 0 ratings
1 star 2 stars 3 stars 4 stars 5 stars
comments

Mms Tab

#---------------------------------YOU BEST NOTE-------------------------------#
#This file is the author's own work and represents their interpretation of the#
#song. You may only use this file for private study, scholarship, or research.#
#-----------------------------------------------------------------------------#

M&M's

Blink 182

Brian S

Intro : 
 only in intro           
e-|^---|-0-4p0-5p0-7-5-4-5p4-|--0-2p0-4p0-5-4-2-0--|--0-4p0-5p0-7-5-4-5p4--|
b-|----|---------------------|---------------------|-----------------------|
g-|9--\|---------------------|---------------------|-----------------------|
d-|9--\|---------------------|---------------------|-----------------------|
a-|7--\|---------------------|---------------------|-----------------------|
e-|----|---------------------|---------------------|-----------------------|

e--2p0-4p0-2-4-2-0-|
b------------------|
g------------------|
d------------------|
a------------------|
e------------------|
[ Tab from: http://www.guitartabs.cc/tabs/b/blink_182/mms_tab_ver_10.html ]
Verse 1 : 2x
e----------------------------------------------------------------|
b----------------------------------------------------------------|
g----9---9---9---9-----9--9--9--9----9---9---9--9----9---9--9--9-|
d----------------------------------6---6---6---6---7---7--7--7---|
a-7---7---7----7-----9--9--9--9----------------------------------|
e----------------------------------------------------------------|

Verse 2 :2x
e----------------------------------------------|
b----------------------------------------------|
g--9--------------------------------------9~~--|
d--9-(etc....)----------------------------9~~--|
a--7-----------------/9~~~-7---9~~--7--6--7~~--|
e----------------------------------------------|
     (Buy some candy
      and cigarettes
      and well in my
      car)

Chorus :
e---------------------------------|
b---------------------------------|
g---------------------------4-----|
d----4-------7-------2------4-----|
a----4-------7-------2------2-----|
e----2-------5-------0------------|
     Im with you....

Breakdown!!!
e--------------------------------------|
b--------------------------------------|
g----9---------------------------------|  2x
d----9---9--11----7-----2---9---11---7-|
a----7---9--11----7-----2---9---11---7-|
e--------7---9----5-----0---7----9---5-|

e--------------------------------------|
b--------------------------------------|
g--9---9--9--9-9--9-9--9-9-9--9-9-9--9-|
d--9---9--9--9-9--9-9--9-9-9--9-9-9--9-|  repeat!!!!!!!/\!!!!!!!
a--7---7--7--7-7--7-7--7-7-7--7-7-7--7-|
e--------------------------------------|
Comments