Blink 182 - Mms Chords & Tabs

 

Mms Chords & Tabs

Blink 182 Chords & Tabs

Version: 2 Type: Bass Tab 0 ratings
1 star 2 stars 3 stars 4 stars 5 stars
comments

Mms Bass Tab

-----------------------------------------------------------------------------
			     MM's - Blink 182
-----------------------------------------------------------------------------

Tabbed By : Kotie A.
E-mail: LastRockShow@hotmail.com

Tuning: Standard (EADG)

Was checking out the bass tabs for this song, the one on here ain't very good
(no offense, the guy said he wrote it in a hurry) so I'm just gonna try my luck at it.

Intro:
G|----------------------------------------------------|
D|- [Drums--------------------------------------------| x2
A|----- Play] -----------22222222-44444444-00000000---|
E|--------------00000000------------------------------|

Verse:
G|--------------------------------------|
D|-------------------6-6-6-6--7-7-7-7---| x2
A|-7-7-7-7--9-9-9-9---------------------|
E|--------------------------------------|

G|-------------------------|
D|-------------------------| x2
A|-7-(x24)--9--7-9-7-6-7---|
E|-------------------------|

Chorus:
G|-----------------------|
D|-----------------------| x3
A|------0000------2222---|
E|-2222------0000--------|

G|--------------------|
D|--------------------|
A|------0000------2---|
E|-2222------0000-----|
[ Tab from: http://www.guitartabs.cc/tabs/b/blink_182/mms_btab_ver_2.html ]
Verse:
G|--------------------------------------|
D|--------------------------------------| x2
A|---------22222222-44444444-00000000---|
E|-00000000-----------------------------|

G|--------------------------------------|
D|-------------------6-6-6-6--7-7-7-7---| x2
A|-7-7-7-7--9-9-9-9---------------------|
E|--------------------------------------|

G|-------------------------|
D|-------------------------| x2
A|-7-(x24)--9--7-9-7-6-7---|
E|-------------------------|

Chorus:
G|-----------------------|
D|-----------------------| x3
A|------0000------2222---|
E|-2222------0000--------|

G|-----------------------|
D|-----------------------|
A|------0000------2222---|
E|-2222------0000--------|

Bridge:
G|-------------------------|
D|-------------------------|
A|---2--4--0-----2--4--0---|
E|-0-----------0-----------|

G|---------------------------------------|
D|---------------------------------------| x6
A|----------22222222-44444444-00000000---|
E|-00000000------------------------------|

End On:
G|------------------|
D|---- [Let --------|
A|------- It -------|
E|0------- Ring ]---|

Hope this tab is good, tried ma best. Rate and add comments please.

Later - Kotie
Comments