Blink 182 - Marlboro Man Chords & Tabs

 

Marlboro Man Chords & Tabs

Blink 182 Chords & Tabs

Version: 2 Type: Tab 0 ratings
1 star 2 stars 3 stars 4 stars 5 stars
comments

Marlboro Man Tab

-------------------------------------------------------------------------------
			     Malboro Man - Blink 182
-------------------------------------------------------------------------------

Album     : Flyswatter
Tabbed By : fenix_tx@hotmail.com

 Well, this is a rare song, I tabbed it from a MP3 some time ago, so enjoy!.
 This is my first tab, so don\\\'t go mad if i have some mistakes, but I\\\'m pretty sure this is a good one.

Fig. 1  (this the little intro)
e|----------------------|----------------------|----------------------|
B|----------------------|----------------------|----------------------|
G|----------------------|----------------------|----------------------|
D|----7-7--7--7--7-7----|----7-7--7--7--7-7----|-12-12--12--12--12-12-|
A|----5-5--5--5--5-5----|----5-5--5--5--5-5----|-10-10--10--10--10-10-|
E|----------------------|----------------------|----------------------|

e|----------------------|----------------------|----------------------|
B|----------------------|----------------------|----------------------|
G|----------------------|----------------------|----------------------|
D|----7-7--7--7--7-7----|-14-14--14--14--14-14-|----7-7--7--7--7-7----|
A|----5-5--5--5--5-5----|-12-12--12--12--12-12-|----5-5--5--5--5-5----|
E|----------------------|----------------------|----------------------|

Fig. 2
e|---------------------------------|-----------------------------------|
B|---------------------------------|-----------------------------------|
G|---------------------------------|-----------------------------------|
D|-0h5-0-0h4-0-0h6-0-0h6-0h5-0-0-0-|-0h5-0-0h4-0-0h3-0-0h3-0h3\\\\2-0-0-0-|
A|---------------------------------|-----------------------------------|
E|---------------------------------|-----------------------------------|

e|---------------------------------|-----------------------------------|
B|---------------------------------|-----------------------------------|
G|---------------------------------|-----------------------------------|
D|-0h5-0-0h4-0-0h6-0-0h6-0h5-0-0-0-|-0h5-0-0h4-0-0h3-0-0h3-0h4p3-0-0-0-|
A|---------------------------------|-----------------------------------|
E|---------------------------------|-----------------------------------|

Fig. 3    (verse)
e|-----------------|-----------------|
B|-----------------|-----------------|
G|-----------------|-----------------|
D|-2-2-2-2-7-7-7-7-|-9-9-9-9-5-------|
A|-0-0-0-0-5-5-5-5-|-7-7-7-7-3-------|
E|-----------------|-----------0-2-3-|

Fig. 4
e|-------------------|-------------------|------|
B|-------------------|-------------------|-*--/-|
G|-------------------|-------------------|---/--|
D|-7-7-7--5--2-2-2-2-|-9-9-9--5--2-2-2-2-|--/---|
A|-5-5-5--3--0-0-0-0-|-7-7-7--3--0-0-0-0-|-/--*-|
E|-------------------|-------------------|------|

e|-------------------|-------------------|-------------------|
B|-------------------|-------------------|-------------------|
G|-------------------|-------------------|-------------------|
D|-7-7-7--5--2-2-2-2-|-9-9-9--5--2-2-2-2-|-------------------|
A|-5-5-5--3--0-0-0-0-|-7-7-7--3--0-0-0-0-|-------------------|
E|-------------------|-------------------|-0-2-3-------------|

Fig. 5   (chorus)
e|---------------------------|---------------------------|
B|---------------------------|---------------------------|
G|---------------------------|---------------------------|
D|--7--7--7--7--7--7--7--7---|-0h5-0-0h4-0-0h6-0-0h4-5-4-|
A|--5--5--5--5--5--5--5--5---|---------------------------|
E|---------------------------|---------------------------|

e|---------------------------|---------------------------|
B|---------------------------|---------------------------|
G|---------------------------|---------------------------|
D|--2--2--2--2--2--2--2--2---|-0h6-0-0h4-0-0h3-0-0h3-5-4-|
A|--0--0--0--0--0--0--0--0---|---------------------------|
E|---------------------------|---------------------------|

e|---------------------------|---------------------------|
B|---------------------------|---------------------------|
G|---------------------------|---------------------------|
D|--9--9--9--9--9--9--9--9---|-0h5-0-0h4-0-0h6-0-0h3-5-4-|
A|--7--7--7--7--7--7--7--7---|---------------------------|
E|---------------------------|---------------------------|
[ Tab from: http://www.guitartabs.cc/tabs/b/blink_182/marlboro_man_tab_ver_2.html ]
e|---------------------------|---------------------------|
B|---------------------------|---------------------------|
G|---------------------------|---------------------------|
D|--2--2--2--2--2--2--2--2---|-0h6-0-0h4-0-0h3-0-0h3-5-4-|
A|--0--0--0--0--0--0--0--0---|---------------------------|
E|---------------------------|---------------------------|

Fig. 6
e|-------------------------------------------------|\\\\
B|------------------------------------------*--/---| |
G|--------------------------------------------/----| | x3 
D|--2--2--2--2--7--7--7--7--9--9--9--9--9----/-----| |
A|--0--0--0--0--5--5--5--5--7--7--7--7--7---/--*---| |
E|-------------------------------------------------|/

e|-------------------------------------------------|
B|-------------------------------------------------|
G|-------------------------------------------------|
D|--2--2--2--2--7--7--7--7--9--9--9--9----9----9---|
A|--0--0--0--0--5--5--5--5--7--7--7--7----7----7---|
E|-------------------------------------------------|

Fig. 7
e|-----------------|-----------------|-----------------|-----------------|
B|-----------------|-----------------|-----------------|-----------------|
G|-----------------|-----------------|-----------------|-----------------|
D|-9-9-9-9-9-9-9-9-|-7-7-7-7-7-7-7-7-|-2-2-2-2-2-2-2-2-|-9-9-9-9-9-9-9-9-|
A|-7-7-7-7-7-7-7-7-|-5-5-5-5-5-5-5-5-|-0-0-0-0-0-0-0-0-|-7-7-7-7-7-7-7-7-|
E|-----------------|-----------------|-----------------|-----------------|

Fig. 8 : Guitar Solo  (very cool, but a little hard 2 play)
e|-----------------------------|-----------------------------|
B|-----------------------------|-----------------------------|
G|-----------------------------|-----------------------------|
D|-------10-9-9---9--9/10-9-7--|-6-6-6--6-6--6-6-6-6-6-6-----|
A|-13-13-----------------------|-----------------------------|
E|-----------------------------|-----------------------------|

e|-----------------------------|---------------------------------------|
B|-----------------------------|---------------------------------------|
G|-----------------------------|---------------------------------------|
D|-10-10-10-10--10-10-13-11-10-|-11-11-11--11--10-11h12-11h12-13-13-10-|
A|-----------------------------|---------------------------------------|
E|-----------------------------|---------------------------------------|

e|-----------------------------|------------------------------|
B|-----------------------------|------------------------------|
G|-----------------------------|-----7--7--7---7--------------|
D|-------10-10-9--9/10-9-7-----|-6--6--6--6---6---------------|
A|-13-13-----------------------|------------------------------|
E|-----------------------------|------------------------------|

e|-----------------------------|---------------------------------------|
B|-----------------------------|---------------------------------------|
G|-----------------------------|---------------------------------------|
D|-10-10-10-10--10-10-13-11-10-|-11-11-10--11--13-11-10----13----------|
A|-----------------------------|------------------------13-------------|
E|-----------------------------|---------------------------------------|

Fig. 9
e|-----------------|-----------------|-----------------|------------------------|
B|-----------------|-----------------|-----------------|------------------------|
G|-----------------|-----------------|-----------------|------------------------|
D|-7-7-7--7--7-7-7-|-7--9-9-11-11-14-|-7-7-7--7--7-7-7-|-14-14-14--14--14-14-14-|
A|-5-5-5--5--5-5-5-|-5--7-7-9--9--12-|-5-5-5--5--5-5-5-|-12-12-12--12--12-12-12-|
E|-----------------|-----------------|-----------------|------------------------|

End with:
e|-----------------|
B|-----------------|
G|-----------------|
D|-7~--------------|
A|-5~--------------|
E|-----------------|

Song order:

Bass Intro
Fig. 1
Fig. 2	x2
Fig. 3	x4	(Well this one day, I like to say, and can\\\'t I...)
Fig. 4	x2	(I don\\\'t know why, I just want to die...)
Fig. 5		(Blacked on ground, nothing to eat...ooh, it might look amusing...)
Fig. 2
Fig. 6	x4	(Oh, how the antelopes, soft...)
Fig. 3	x2
Fig. 5
------		
Fig. 7
Fig. 8 (or Solo)
Fig. 9

That\\\'s all!. Excuse my bad english, im from Chile, and i speak spanish!!!

Suggestions, hints, anything... @Mail me :
fenix_tx@hotmail.com

Comments