Blink 182 - Marlboro Man Chords & Tabs

 

Marlboro Man Chords & Tabs

Blink 182 Chords & Tabs

Version: 1 Type: Bass Tab 0 ratings
1 star 2 stars 3 stars 4 stars 5 stars
comments

Marlboro Man Bass Tab

   
Blink 182 - Marlboro Man
Album: Flyswatter
Tabbed By: Frank

Intro 
(Short drum solo, come in at 0:08) 

G ----------------------------------------- 
D --7----7-------7--7--7--7--7-------------
A ----0-----0------0--0--0--0--------------
E ----------------------------------------- 

REPEAT X2
G --------------------------------------------------------
D ------5-7-5-------------5-7-57-57--0-5-7-10-12-10--7-57-
A 0-5-7-------7-57--0-5-7---------------------------------
E --------------------------------------------------------

G ------------------------------------------------------
D ------5-7-5------------------------------5-7-57-57--7-(let ring on
A 0-5-7-------7-57-------5-7-5-------0-5-7-------------- second time)
E -----------------0-5-7-------7-57---------------------

VERSE 1 - 0:53 
G ------------------------------------| 
D ---------------------------77777777-|RepeatX2
A 00000000-55555555-77777777----------| 
E ------------------------------------| 

G ------------------------------------| 
D ---------------------------77---4-6-|RepeatX4
A 00000000-55555555-77777777----7-----| 
E ------------------------------------| 

CHORUS - 1:21 
G ------------------------| 
D ------------------------| RepeatX4 
A 5554-000000-7774-000020-| 
E ------------------------| 

RepeatX2
G --------------------------------------------------------------------| 
D --------------------------------------------------------------------|
A 7777777777777777-0000000000002000------------------5555555555555555-| 
E ----------------------------------2222222222222222------------------| 

[ Tab from: http://www.guitartabs.cc/tabs/b/blink_182/marlboro_man_btab.html ]
VERSE 2  - 1:58
G -------------------------------------| 
D ---------------------------777777h97-| RepeatX2 
A 00000000-55555555-77777777-----------| 
E -------------------------------------| 

G ----------------| 
D ----------------| RepeatX4 
A 0000-5555-77777-| 
E ----------------| 
 
G ------------------------------------| 
D ---------------------------77777777-| RepeatX2 
A 00000000-55555555-77777777----------| 
E ------------------------------------| 

2:25 
RepeatX3
G ----------------------------------------------------------------------------| 
D -----------------7777777777777777-9-7-6676----------------------------------| 
A 7777777777777777--------------------------------------------5555555555555555| 
E -------------------------------------------2222222222222222-----------------| 

2:52
G --------------------------------------------------------------------| 
D -----------------7777777777777777-----------------------------------| 
A 7777777777777777-----------------------------------5555555555555555-| 
E ----------------------------------2222222222222222------------------| 

3:02 
(Tom's guitar solo comes in here, with this playing in the background) 
RepeatX2
G |---------------------------------------------------------------------| 
D |---------------------------------------------------------------------|   
A |7777777777777777777-000000000000000-----------------5555555555555555-| 
E |------------------------------------222222222222222------------------| 

3:20 
G ----------------------------------------------------------------------- 
D -----------------4444-6667-7777777-977777-9-7777777-9-99999-10-9-7-99-7(let ring)
A 7777777777777777------------------------------------------------------- 
E -----------------------------------------------------------------------
Comments