Blink 182 - Man Overboard Chords & Tabs

 

Man Overboard Chords & Tabs

Blink 182 Chords & Tabs

Version: 2 Type: Tab 2 ratings
1 star 2 stars 3 stars 4 stars 5 stars
comments

Man Overboard Tab

Daniel Kunz
Dazedsmurf420@hotmail.com
Man overboard by Blink182

I tabbed this out earlier but found an easier and better way to play 
it...here it is.

play this part as fast as you can...it sounds like two guitars 
but its actually one played very fast...and its NOT bass.  
play each note one time to get used to it...
it will still sound right.

intro:
----------------------------------------------------------------------
----------------------------------------------------------------------
----------------------------------------------------------------------
-----0-0----------------0-0---------------0-0-------------------------
----------3-3--2-2-----------3-3-2-2-----------3-3-2-2-3-3-2-2-3-3-2-2
3-3-----------------3-3---------------3-3-----------------------------
play this 6 times but on the last time dont play the last 2 notes.

after two times playing intro, singing starts and second guitar plays:
2nd guitars intro:
--------------------------------------------play all these notes a few 
--------------------------------------------times...play the last chord
-----------------------------------------5--a few more times...play a 
5-------------------2--------------------5--total of 4 times...
5-------------------2--------------------3--
3-------------------0-----------------------

hit this chord the last time:
----------------------
----------------------
--7-------------------
--7-------------------
--5-------------------
----------------------

[ Tab from: http://www.guitartabs.cc/tabs/b/blink_182/man_overboard_tab_ver_2.html ]
part 1:
------------------------------------------------------------
------------------------------------------------------------
--------------------------------------------------0-------------
--------------------------------0h2-0--0-0h2-0----------4 times-
2h3-2---2-2h3-0-----4 times---------------------3---------------
-----------------3------------------------------------------
one time palm mute one time without.
part 2:
----------------------------------------------------------------------
----------------------------------------------------------------------
-----------------------------------------5--------------------7-------
5-------------------2--------------------5-etc. buncha times--7-etc.--
5-etc.buncha times--2-etc. buncha times--3--------------------5-------
3-------------------0-------------------------------------------------

then you do the first half of "part 1" and then do "part 2" again

then:
interlude
--------------------------------------------play all these notes once..
--------------------------------------------let last note ring longer.
-----------------------------------------5--play 4 times..
5-------------------2--------------------5--
5-------------------2--------------------3--
3-------------------0-----------------------

hit this chord the last time:
----------------------
----------------------
--7-------------------
--7-------------------
--5-------------------
----------------------


then do part 1...

outro:
---------------------------------------------------------------
---------------------------------------------------------------
----------------5-5-5-5-5-5-5-5-----------------5-5-5-5-5-5-5-5
5-5-5-5-5-5-5-5-5-5-5-5-5-5-5-5-5-5-5-5-5-5-5-5-5-5-5-5-5-5-5-5-
5-5-5-5-5-5-5-5-3-3-3-3-3-3-3-3-5-5-5-5-5-5-5-5-3-3-3-3-3-3-3-3-
3-3-3-3-3-3-3-3-----------------3-3-3-3-3-3-3-3-----------------
----------------------------------------------------------------
----------------------------------------------------------------
----------------5-5-5-5-5-5-5----------------5-5-5-5/7-7-7-7----
5-5-5-5-5-5-5-5-5-5-5-5-5-5-5-5-5-5-5-5-5-5--5-5-5-5/7-7-7-7--5-
5-5-5-5-5-5-5-5-3-3-3-3-3-3-3-5-5-5-5-5-5-5--3-3-3-3/5-5-5-5--5-
3-3-3-3-3-3-3-3---------------3-3-3-3-3-3-3-------------------3-

last note rings out to end the song...thats it...for praises, 
thanks,and bitches, email me at Dazedsmurf420@hotmail.com
Comments