Blink 182 - Man Overboard Chords & Tabs

 

Man Overboard Chords & Tabs

Blink 182 Chords & Tabs

Version: 10 Type: Tab 0 ratings
1 star 2 stars 3 stars 4 stars 5 stars
comments

Man Overboard Tab

I hope you enjoy this tab.  I think all of it is mostly correct, but if you find 
any mistakes or have any comments, feel free to email me. Thanks

------------------------------------------------------------------------------
------------------------------------------------------------------------------
------------------------------------------------------------------------------
-------------------------------------------------------------------x2---------
-----5---3---2-------5---3---2-------5---3---2---3---2---3---2----------------
-3-3---3---3---3-3-3---3---3---3-3-3---3---3---3---3---3---3---3--------------
               Palm muted Clean                                               

------------------------------------|-----------------------------------------
------------------------------------|-----------------------------------------
-----------------5-5-5-5-5-5-5-5----|-7---------------------------------------
-5-5-5-5-7-7-7-7-5-5-5-5-5-5-5-5-x4-|-7---------------------------------------
-5-5-5-5-7-7-7-7-3-3-3-3-3-3-3-3----|-5---------------------------------------
-3-3-3-3-5-5-5-5--------------------|-----------------------------------------
 On the last time through, end on this power chord                            

------------------------------------------------------------------------------
------------------------------------------------------------------------------
------------------------------------------------------------------------------
-----------------------------------------x2-----------------------------------
---0-2-3-2-0-2-3-2-0---0-2-3-2-0-2-3-2-0--------------------------------------
-3-------------------0--------------------------------------------------------
                                                                              

------------------------------------------------------------------------------
------------------------------------------------------------------------------
------------------------------------------------------------------------------
-5-5-----0-0-0-2-0---x4-------------------------------------------------------
-----2-3-----------3--------------------------------------------------------5-
------------------------------------------------------------------------------
                                                                              

------------------------------------------------------------------------------
------------------------------------------------------------------------------
-------------------------5-5-5-5----------------------------------------------
-5-5-5-5-5-5-5-5-2-2-2-2-5-5-5-5-x2-------------------------------------------
-5-5-5-5-5-5-5-5-2-2-2-2-3-3-3-3----------------------------------------------
-3-3-3-3-3-3-3-3-0-0-0-0------------------------------------------------------
                     Palm Muted                                               

------------------------------------------------------------------------------
------------------------------------------------------------------------------
---------7-7-7-7---------5-5-5-5----------------------------------------------
-5-5-5-5-7-7-7-7-2-2-2-2-5-5-5-5-x--------------------------------------------
-5-5-5-5-5-5-5-5-2-2-2-2-3-3-3-3----------------------------------------------
-3-3-3-3---------0-0-0-0------------------------------------------------------
                                                                              
[ Tab from: http://www.guitartabs.cc/tabs/b/blink_182/man_overboard_tab_ver_10.html ]
------------------------------------------------------------------------------
------------------------------------------------------------------------------
------------------------------------------------------------------------------
-----------------------------------------x2-----------------------------------
---0-2-3-2-0-2-3-2-0---0-2-3-2-0-2-3-2-0--------------------------------------
-3-------------------0--------------------------------------------------------
                                                                              

------------------------------------------------------------------------------
------------------------------------------------------------------------------
------------------------------------------------------------------------------
-----5-----5-----5-----5-----5-----5-----5-----5-x2---------------------------
-------------------------------------3-3---3-3--------------------------------
-3-3---3-3---3-3---3-3---0-0---0-0--------------------------------------------
  Palm Mute on just the bottom two strings ( E, A )                           

------------------------------------------------------------------------------
------------------------------------------------------------------------------
---------7-7-7-7---------5-5-5-5----------------------------------------------
-5-5-5-5-7-7-7-7-2-2-2-2-5-5-5-5-x2-------------------------------------------
-5-5-5-5-5-5-5-5-2-2-2-2-3-3-3-3----------------------------------------------
-3-3-3-3---------0-0-0-0------------------------------------------------------
                                                                              

------------------------------------|-----------------------------------------
------------------------------------|-----------------------------------------
-----------------5-5-5-5-5-5-5-5----|-7---------------------------------------
-5-5-5-5-7-7-7-7-5-5-5-5-5-5-5-5-x4-|-7---------------------------------------
-5-5-5-5-7-7-7-7-3-3-3-3-3-3-3-3----|-5---------------------------------------
-3-3-3-3-5-5-5-5--------------------|-----------------------------------------
   On the last time, end on this power chord                                  

------------------------------------------------------------------------------
------------------------------------------------------------------------------
------------------------------------------------------------------------------
-----------------------------------------x2-----------------------------------
---0-2-3-2-0-2-3-2-0---0-2-3-2-0-2-3-2-0--------------------------------------
-3-------------------0--------------------------------------------------------
                                                                              

------------------------------------------------------------------------------
------------------------------------------------------------------------------
------------------------------------------------------------------------------
-5-5-----0-0-0-2-0---x4-------------------------------------------------------
-----2-3-----------3----------------------------------------------------------
------------------------------------------------------------------------------
                                                                              

-----------------------------------------------------------------|------------
-----------------------------------------------------------------|------------
-----------------5-5-5-5-5-5-5-5-----------------5-5-5-5-5-5-5-5-|-7-7-7-7----
-5-5-5-5-5-5-5-5-5-5-5-5-5-5-5-5-5-5-5-5-7-7-7-7-5-5-5-5-5-5-5-5-|-7-7-7-7-5--
-5-5-5-5-5-5-5-5-3-3-3-3-3-3-3-3-5-5-5-5-7-7-7-7-3-3-3-3-3-3-3-3-|-5-5-5-5-5--
-3-3-3-3-3-3-3-3-----------------3-3-3-3-5-5-5-5-----------------|---------3--
          On the last time play the power chords outside the bar
Comments