Blink 182 - Man Overboard Chords & Tabs

 

Man Overboard Chords & Tabs

Blink 182 Chords & Tabs

Version: 4 Type: Bass Tab 0 ratings
1 star 2 stars 3 stars 4 stars 5 stars
comments

Man Overboard Bass Tab

   
call me the "bassmaster" cause this is 100% right 

part A
g-0-0-7-0-5-0-4-0-------------
d-----------------------------
a-----------------------------
e-----------------------------

do A three times then do A1 thats the intro except the last time you do it go 
to A2 not A1

part A1
g-5-0-4-0-5-0-4-0--------------
d------------------------------
a------------------------------
e------------------------------

part A2
g-2----------------------------
d-0----------------------------
a------------------------------
e------------------------------

the go to this 

part B
g-----------------------------------
d-----------------------------------
a-----------------------------------
e-3-3-3-3-3-3-3-3-3-3-3-3-3-3-5-5---

g------------------------------------
d------------------------------------
a-----------------3-3-3-3-3-3-5-5----
e-0-0-0-0-0-0-0-0--------------------

part B1
g-----------------------------------------
d-----------------------------------------
A-10-10-10-10-10-10-10-10-5-5-5-5-5-5-5-5-
e-----------------------------------------
[ Tab from: http://www.guitartabs.cc/tabs/b/blink_182/man_overboard_btab_ver_4.html ]
g---------------------------------
d---------------------------------
A-7-7-7-7-7-7-7-7-3-3-3-3-3-3-3-3-
e---------------------------------

Interlude

first two notes are eigth then third note is a quarter, have to listen hard but 
this part is there, same pattern throughout interlude

g-----------------------------------------
d-----------------------------------------
a-10-10-10--10-10-10--12-12-12--12-12-12--
e-----------------------------------------

g-----------------------------------------
d-----5------5------5------5--------------
a-3-3-3--3-3-3--3-3-3--3-3-3--------------
e-----------------------------------------

then last time in interlude goes

g-------------------------
d-----5------5--7---------
a-3-3-3--3-3-3--5---------
e-------------------------

well you should be able to easly tell what part goes where 
oh yeah he ends on this below

g--------
d--------
a--------
e-3------

have fun playing and supporting punk rock! sorry the way i labled the parts may be 
confusing just learn the parts the rest should be easy like i said. any comments or 
questions or request (i might do them)? just put it all below.
Comments