Blink 182 - Lucky Chords & Tabs

 

Lucky Chords & Tabs

Blink 182 Chords & Tabs

Version: 1 Type: Tab 0 ratings
1 star 2 stars 3 stars 4 stars 5 stars
comments

Lucky Tab

Lucky
Blink 182
Live at Star Lake
Tabbed By: Mike

Intro
e|------------------------|
B|------------------------|
G|-5--5--5-4--------------|
D|-5--5--5-4--7--7--7-5---|
A|-3--3--3-2--7--7--7-5---|
E|------------5--5--5-3---|

Verse
e|------------------------|
B|------------------------|
G|-5--5--5-4--------------|
D|-5--5--5-4--7--7--7-5---|
A|-3--3--3-2--7--7--7-5---|
E|------------5--5--5-3---|
[ Tab from: http://www.guitartabs.cc/tabs/b/blink_182/lucky_tab.html ]
Pre Chorus
e|----------------------------------------------------------------------|
B|----------------------------------------------------------------------|
G|-5-5-5-5-5-5-5-5------------------------------------------------------|
D|-5-5-5-5-5-5-5-5--7-7-7-7-7-7-7-7--3-3-3-3-3-3-3-3--5-5-5-5-5-5-5-5---|
A|-3-3-3-3-3-3-3-3--7-7-7-7-7-7-7-7--3-3-3-3-3-3-3-3--5-5-5-5-5-5-5-5---|
E|------------------5-5-5-5-5-5-5-5--1-1-1-1-1-1-1-1--3-3-3-3-3-3-3-3---|

Chorus
e|----------------------------------------------------------------------|
B|----------------------------------------------------------------------|
G|-5-5-5-5-5-5-5-5------------------------------------------------------|
D|-5-5-5-5-5-5-5-5--7-7-7-7-7-7-7-7--3-3-3-3-3-3-3-3--5-5-5-5-5-5-5-5---|
A|-3-3-3-3-3-3-3-3--7-7-7-7-7-7-7-7--3-3-3-3-3-3-3-3--5-5-5-5-5-5-5-5---|
E|------------------5-5-5-5-5-5-5-5--1-1-1-1-1-1-1-1--3-3-3-3-3-3-3-3---|

Bridge
e|---------------------------------------------------------------|
B|---------------------------------------------------------------|
G|--------10-----------------7---------------3---------------5---|
D|-----10------10----------7-----7---------3-----3---------5-----|
A|---8------------10-----5---------7-----1---------3-----3-------|
E|-8---------8---------5-------5-------1-------1-------3---------|
Comments