Blink 182 - Lost Without You Chords & Tabs

 

Lost Without You Chords & Tabs

Blink 182 Chords & Tabs

Version: 1 Type: Tab 1 rating
1 star 2 stars 3 stars 4 stars 5 stars
comments

Lost Without You Tab

Tabbed By Simon Richards - Email DELONGE_HOPPUS@HOTMAIL.COM
I'm not going to brag and say this is 100% correct because obviously I cannot give
that garentee. Anyway. Enjoy Fellow Blink Fans!

BLINK - 182 -
NEW ALBUM TABS

Lost Without You

Piano Intro: x3
e]-------------------------------------------------]
b]-------------------------------------------------]
g]--9----------9-----------9------------9----------]
d]----7-7-(7)-----6-6-(6)----7-7-(7)------6-6-(6)--]
a]---------------------------9-9-(9)---------------]
E]-------------------------------------------------]

Verse One: (with Bass) x2
e]-------------------------------------------------]
b]-------------------------------------------------]
g]--9------9----9------9----9-----9------9-----9---]
d]----7-7-(7)-----6-6-(6)----7-7-(7)------6-6-(6)--]
a]---------------------------9-9-(9)---------------]
E]-------------------------------------------------]

Chorus:
e]-----------------------------------------------------]
b]-----------------------------------------------------]
g]-----------------------------------------------------]
d]--7---7---7--7---7--7--7--7--4--4--4--4--7--7--7--7--]
a]--x---x---x--x---x--x--x--x--x--x--x--x--x--x--x--x--]
E]--5---5---5--5---4--4--4--4--2--2--2--2--4--4--4--4--]


Verse Two SOFT SINGLE STRUMS
e]-----------------------------------------------------]
b]-----------------------------------------------------]
g]-----------------------------------------------------]
d]--7---7---7--7---7--7--7--7--4--4--4--4--7--7--7--7--]
a]--x---x---x--x---x--x--x--x--x--x--x--x--x--x--x--x--]
E]--5---5---5--5---4--4--4--4--2--2--2--2--4--4--4--4--]

Verse Three: Part 1 x2
e]------------------------------------------------------------------]
b]------------------------------------------------------------------]
g]------------------------------------------------------------------]
d]---4-4-4-4-4-4-4---2-2-2-2-2-2-2---7-7-7-7-7-7-7---9-9-9-9-9-9-9--]
a]---4-4-4-4-4-4-4---2-2-2-2-2-2-2---7-7-7-7-7-7-7---9-9-9-9-9-9-9--]
E]---2-2-2-2-2-2-2---0-0-0-0-0-0-0---5-5-5-5-5-5-5---7-7-7-7-7-7-7--]
pm   - - - - - - -   - - - - - - -   - - - - - - -   - - - - - - - 
[ Tab from: http://www.guitartabs.cc/tabs/b/blink_182/lost_without_you_tab.html ]
Part 2 x2
e]------------------------------------------------------------------]
b]------------------------------------------------------------------]
g]------------------------------------------------------------------]
d]---4-4-4-4-4-4-4---2-2-2-2-2-2-2---7-7-7-7-7-7-7---9-9-9-9-9-9-9--]
a]---4-4-4-4-4-4-4---2-2-2-2-2-2-2---7-7-7-7-7-7-7---9-9-9-9-9-9-9--]
E]---2-2-2-2-2-2-2---0-0-0-0-0-0-0---5-5-5-5-5-5-5---7-7-7-7-7-7-7--]
pm   - - - - - - -   - - - - - - -   - - - - - - -   - - - - - - - 
 ]                                                                  ]
e]------------------------------------------------------------------]
B]------------------------------------------------------------------]
G]-----14-16----14-16--------14-16----14-16--------14-16----14-16---]
D]---14-------14-----------14-------14-----------14-------14--------]
A]-14--------------------14--------------------14-------------------]
E]------------------------------------------------------------------]

Chorus: x2 (Twice Singing)
e]-------------------------------------------------------------------]
b]-------------------------------------------------------------------]
g]-------------------------------------------------------------------]
d]---7---7---7---7---7---7---7---7---4---4---4---4---7---7---7---7---]
a]---x---x---x---x---x---x---x---x---x---x---x---x---x---x---x---x---]
E]---5---5---5---5---4---4---4---4---2---2---2---2---4---4---4---4---]

Thwo Guitars x4
e]-------------------------------------------------------------------]
b]-------------------------------------------------------------------]
g]-------------------------------------------------------------------]
d]---7---7---7---7---7---7---7---7---4---4---4---4---7---7---7---7---]
a]---x---x---x---x---x---x---x---x---x---x---x---x---x---x---x---x---]
E]---5---5---5---5---4---4---4---4---2---2---2---2---4---4---4---4---]
 ]                                                                   ]
e]-------------------------------9--------------------------------9--]
b]--10-10-10-10---12-12-12-12-12----10-10-10-10---12-12-12-12--12----]
g]----9--9--9--9----9--9--9--9--------9--9--9--9----9--9--9--9-------]
d]-------------------------------------------------------------------]
a]-------------------------------------------------------------------]
E]-------------------------------------------------------------------]

Piano Outro
e]--------------------------------------------------------------------------------------------------------]
b]--------------------------------------------------------------------------------------------------------]
g]--6--6-----------------------6--6-------------------------6--6------------------------6--6--------------]
d]----7--7-------6----6--6h7-----7--7---7-----9>--9---7h9-----7--7--------6----6--6h7-----7--7---7----9>--]
a]-----------7-7--------------------------7---------------------------7-7--------------------------7------]
E]--------------------------------------------------------------------------------------------------------]

Chorus: (continue to end)
e]-------------------------------------------------------------------]
b]-------------------------------------------------------------------]
g]-------------------------------------------------------------------]
d]---7---7---7---7---7---7---7---7---4---4---4---4---7---7---7---7---]
a]---x---x---x---x---x---x---x---x---x---x---x---x---x---x---x---x---]
E]---5---5---5---5---4---4---4---4---2---2---2---2---4---4---4---4---]
 ]                                                                   ]
e]-------------------------------9--------------------------------9--]
b]--10-10-10-10---12-12-12-12-12----10-10-10-10---12-12-12-12--12----]
g]----9--9--9--9----9--9--9--9--------9--9--9--9----9--9--9--9-------]
d]-------------------------------------------------------------------]
a]-------------------------------------------------------------------]
E]-------------------------------------------------------------------]
Comments