Blink 182 - Lifes So Boring Chords & Tabs

 

Lifes So Boring Chords & Tabs

Blink 182 Chords & Tabs

Version: 1 Type: Tab 0 ratings
1 star 2 stars 3 stars 4 stars 5 stars
comments

Lifes So Boring Tab

   
-----------------------------------------------------------------------------
			     LIFES SO BORING - Blink-182
-----------------------------------------------------------------------------
Tabbed by:brian
Email:boxcarracer_182_carousel@hotmail.com

Tuning:regular

played on bass but u can play it on guitar...
e|------------------------------------------------------------------------|
B|------------------------------------------------------------------------|
G|------------------------------------------------------------------------|
D|------------------------------------------------------------------------|
A-------4-----4---4------4-----6-----6-----6-----6--6------2------2----2--|
E|-2-2----2-2-----2---4-4---4-4----4---6-6---6-6--6----0-0----0-0-----0---|

guitar intro chords
e|-----------------------------------------------------------------------|
B|-----------------------------------------------------------------------|
G|-----------------------------------------------------------------------|
D|--------3--4-----------------------------------------------------------|
A|--4--6--1--2-----------------------------------------------------------|
E|--2--4-----------------------------------------------------------------|
[ Tab from: http://www.guitartabs.cc/tabs/b/blink_182/lifes_so_boring_tab.html ]
then guitar comes in with this..
e|---------------------------------------------------------------------------|
B|---------------------------------------------------------------------------|
G|-----------6---------6---------6------6---6--------------------------------|
D|------4-4----4-4----4-----4-4-----4-4---4----------------------------------|
A|---------------------------------------------------------------------------|
E|---------------------------------------------------------------------------|

another guitar part
e|--------------------------------------------------------------------------|
B|----3---3-1-0---3---3-1-0-------------------------------------------------|
G|-0---0--------0---0-------------------------------------------------------|
D|--------------------------------------------------------------------------|
A|--------------------------------------------------------------------------|
E|--------------------------------------------------------------------------|

the whole song is that repeated over and over again

very rare song from blink to download it go to www.blink-182world.tk


| /  slide up
| \  slide down
| h  hammer-on
| p  pull-off
| ~  vibrato
| +  harmonic
| x  Mute note
=============================================================================
Comments