Blink 182 - Lemmings Chords & Tabs

 

Lemmings Chords & Tabs

Blink 182 Chords & Tabs

Version: 2 Type: Tab 0 ratings
1 star 2 stars 3 stars 4 stars 5 stars
comments

Lemmings Tab

Blink 182, Lemmings.
Tabbed by Ryan, Blink180tw@aol.com.
  
E|-------------------|
B|-------------------|
G|-------------------|
D|----4--1-----2--1--|
A|-2--------2--------|
E|-------------------|

Intro 2x
E|--------------------------------------|
B|--------------------------------------|
G|-444------444-------------------------|
D|-444-2222-444-6666-444-6666-22222222--|
A|-222-2222-222-6666-444-6666-22222222--|
E|-----0000-----4444-222-4444-00000000--|

Verse 2x                        
E|----3x-------------|--------1x----------|
B|-------------------|--------------------|
G|-------------------|----------99999999--|
D|----4--1-----2--1--|-22222222-99999999--|
A|-2--------2--------|-22222222-77777777--|
E|-------------------|-00000000-----------|

Chorus guitar1  2x
E|----------------------------------------|
B|-----4---5-------4---5-------4---5------|
G|-4-----------4-----------4-----------4--|
D|----------------------------------------|
A|----------------------------------------|
E|----------------------------------------|

Chorus guitar2  2x
E|-------------------------------------|
B|-------------------------------------|
G|-------------------------------------|
D|-44444444-66666666-2222222222222222--|
A|-44444444-66666666-2222222222222222--|
E|-22222222-44444444-0000000000000000--|

Intro  2x

Verse  2x 

Chorus guitar 1 and 2  2x

Verse 2x

Chorus guitar 1 and 2  2x
[ Tab from: http://www.guitartabs.cc/tabs/b/blink_182/lemmings_tab_ver_2.html ]
Interlude guitar 1  1x
E|------------------------------------------------|
B|--------------------5-4--------------------5-4--|
G|-4-3-44-4-3-44-3-4------4-3-44-4-3-44-3-4-------|
D|------------------------------------------------|
A|------------------------------------------------|
E|-------------------0----------------------0-----|

Interlude guitar 2  4x
E|--------------------------------------|
B|--------------------------------------|
G|----------66666666----------99999999--|
D|-99999999-66666666-66666666-99999999--|
A|-99999999-44444444-66666666-77777777--|
E|-77777777----------44444444-----------|

Outro guitar 1  4x
E|--------------------------------------|
B|--------------------------------------|
G|----------66666666----------99999999--|
D|-99999999-66666666-66666666-99999999--|
A|-99999999-44444444-66666666-77777777--|
E|-77777777----------44444444-----------|

Outro guitar 2  2x after guitar 1 plays 2x
E|----------------------------------------|
B|-----4---5-------4---5-------4---5------|
G|-4-----------4-----------4-----------4--|
D|----------------------------------------|
A|----------------------------------------|
E|----------------------------------------|

Ending 
E|---------------|
B|---------------|
G|---------------|
D|-9--9--9----9--|
A|-9--9--9----9--|
E|-7--7--7----7--|

Listen to the song so you know how fast to play it. I dont know if the interlude for guitar 1 is right but it sounds right to me. 
:: Ultimate Guitar Archive :: 
http://www.ultimate-guitar.com 

Comments