Blink 182 - Just About Done Chords & Tabs

 

Just About Done Chords & Tabs

Blink 182 Chords & Tabs

Version: 3 Type: Tab 0 ratings
1 star 2 stars 3 stars 4 stars 5 stars
comments

Just About Done Tab

this song is really easy and fun to play so here you go: have fun!:o)oh yeah, this is my
first tab so give me some props!
[ Tab from: http://www.guitartabs.cc/tabs/b/blink_182/just_about_done_tab_ver_3.html ]
----------------------------------------|
-12-------------------------------------|
--------------4v-----------------3v-----|x2
----2--2-4/5-----5-4---2--2-4/5-----5-4-|
----2--2-4/5-----5-4---2--2-4/5-----5-4-|
----0--0-2/3-----3-2---0--0-2/3-----3-2-|


then(palm mute on these)
----------|x8   |-----|
----------|then |-----|
----------|end  |-----|
--2-5-4-3-|with |-2---|
--2-5-4-3-|     |-2---|
--0-3-2-1-|     |-0---|    

ok if you have any questions or comments (which i doubt)please feel free to contact me
at xcristy182x@yahoo.com. please rate!!!=0)
Comments