Blink 182 - Just About Done Chords & Tabs

 

Just About Done Chords & Tabs

Blink 182 Chords & Tabs

Version: 2 Type: Tab 0 ratings
1 star 2 stars 3 stars 4 stars 5 stars
comments

Just About Done Tab

   
song:just about done
CD:cheshire cat (1995)
Artist:Blink 182
tabbed by: corbin e-mail: lil BIG tyma24 7@aol.com
k this song is real simple to play here it is ill give the line 6 pod settings for anyone 
who has one of those things:
amp: fuzz box
drive: 10
bass:10
middle:8
treble:10
channel:10
reverb:n/a
effect:n/a 
^ means bend up or down which ever way u want
/ means slide 
k heres the song (tuning is standard)
E-----------------------------------------------------------
B-12^slightly-bend/0----------------------------------------
G-----------------------------------------------------------
D-2-2-4--5^-5-4--2-2-4--5^--5-4-2-2-4-----5-4---------------
A-2-2-4--3^-3-2--2-2-4------3-2-2-2-4--3^-3-2---------------
E-0-0-2----------0-0-2----------0-0-2-----------------------
[ Tab from: http://www.guitartabs.cc/tabs/b/blink_182/just_about_done_tab_ver_2.html ]
the last part is sumthin like this iam not 100% sure but i think this part is close
E-----------------------------------------------------------
B-----------------------------------------------------------
G-----------------------------------------------------------
D-2-2-2-2---------------------------------------------------
A-2-2-2-2-just-pound-out-this-chord-for-however-long--------
E-0-0-0-0---------------------------------------------------

or it mite go like this
E-----------------------------------------------------------
B-----------------------------------------------------------
G-----------------------------------------------------------
D-2-2-4-5--2-2-4-5------------------------------------------
A-2-2-2-3--2-2-2-3--play-however-many-times-this-is-played--
E-0-0------0-0----------------------------------------------

all the lyrics for this song is:
just bout done with the but let ya' know hey and abunch of screamin or sumthin but thats 
all the guitar in it the first part is 100% correct but i dont no bout the 2nd part
Comments