Blink 182 - Josie Chords & Tabs

 

Josie Chords & Tabs

Blink 182 Chords & Tabs

Version: 5 Type: Tab 0 ratings
1 star 2 stars 3 stars 4 stars 5 stars
comments

Josie Tab

----------------------------------------------------------------------------
			     Josie - Blink 182
----------------------------------------------------------------------------
Tabbed by: $2 Food Stamp
Email: fenderguitar1200@yahoo.com

Tuning: standard

~ : ring out (vibrato)
. : palm mute


This is the first song I ever tabbed so I hope its good

Intro

------      ------|
------      ------|
--6~-- 4x   ------|8x (after 8th time play it 1 more and dont let ring)
--6~--      ------|
--4~--      --4~--|
------      ------|

Verse 1 (2x)

"Yeah my girlfriend..."
------------------------------|
------------------------------|
--666666----------------------|
--666666-666666-444444444444--|
--444444-666666-444444444444--|
---------444444-222222222222--|

------------------------------|
------------------------------|
--666666-777777-999999999999--|
--666666-777777-999999999999--|
--444444-555555-777777777777--|
------------------------------|

-------------------------------|
-------------------------------|
--666666-----------------------|
--666666-666666----------------|
--444444-666666----------------|
---------444444-44-444-444-444-|
                ..............
[ Tab from: http://www.guitartabs.cc/tabs/b/blink_182/josie_tab_ver_5.html ]
------------------------------------------|
------------------------------------------|
--666666-777777-999999999999--666666------|
--666666-777777-999999999999--666666-<----|dont play this last piece 2nd time)
--444444-555555-777777777777--444444------|
------------------------------------------|

Chorus

"And when I feel like giving up..."
-----------------------------------------------------|
-----------------------------------------------------|
---------------666666666666--------------------------|
--666666666666-666666666666-444444444444444444444444-|
--666666666666-444444444444-444444444444444444444444-|
--444444444444--------------222222222222222222222222-|

"I know that everything...
----------------------------------------------|
----------------------------------------------|
--666666-----------------------66-------------|
--666666-666666-444444-444-666-66-------------|Play 4x
--444444-666666-444444-444-666-44-------------|
---------444444-222222-222-444----------------|

Bridge

------|
------|
--6~--
--6~--Play 8x then one more but dont let ring out (like the intro)
--4~--
------

Chorus

"I know that everything...
----------------------------------------------|
----------------------------------------------|
--666666-----------------------66-------------|
--666666-666666-444444-444-666-66-------------|Play 4x
--444444-666666-444444-444-666-44-------------|
---------444444-222222-222-444----------------|

And that's it.. if you need to email me a question or comment my email is fenderguitar1200@yahoo.com
Comments