Blink 182 - Josie Chords & Tabs

 

Josie Chords & Tabs

Blink 182 Chords & Tabs

Version: 5 Type: Bass Tab 0 ratings
1 star 2 stars 3 stars 4 stars 5 stars
comments

Josie Bass Tab

Intro 1

G||4-------|(4)-----|4-------|(4)-----|4-------|(4)-----|4-------|(4)-----|
D||4-------|(4)-----|4-------|(4)-----|4-------|(4)-----|4-------|(4)-----|
A||--------|--------|--------|--------|--------|--------|--------|--------|
E||--------|--------|--------|--------|--------|--------|--------|--------|

Intro 2

G||4-444444|4-444444|4-444444|4-444444|4-444444|4-444444|4-444444|4-444444|
D||4-444444|6-666666|2-222222|2-222222|4-444444|6-666666|2-222222|2-222222|
A||--------|--------|--------|--------|--------|--------|--------|--------|
E||--------|--------|--------|--------|--------|--------|--------|--------|

G|4-444444|4-444444|8-888888|4-444444|4-444444|4-444444|44444444|--------||
D|4-444444|6-666666|6-666666|2-222222|4-444444|6-666666|22222222|--------||
A|--------|--------|--------|--------|--------|--------|--------|--------||
E|--------|--------|--------|--------|--------|--------|--------|--------||

Verse 1

G||--------|--------|--------|--------|--------|--------|--------|--------|
D||--------|--------|--------|--------|--------|--------|--------|--------|
A||22222222|--------|--------|--------|22222222|44444444|--------|--------|
E||--------|22222222|00000000|00000000|--------|--------|00000000|00000000|

G|--------|--------|--------|--------|--------|--------|--------|--------|
D|--------|--------|--------|--------|--------|--------|--------|--------|
A|22222222|--------|-----2-2|--------|22222222|44444444|--------|--------|
E|--------|22222222|00-00---|00-000-0|--------|--------|00000000|00000000|

G|--------|--------||
D|--------|--------||
A|22222222|2-------||
E|--------|--------||

Verse 2

G||--------|--------|--------|--------|--------|--------|--------|--------|
D||--------|--------|--------|--------|--------|--------|--------|--------|
A||22222222|--------|--------|--------|22222222|44444444|--------|--------|
E||--------|22222222|00000000|00000000|--------|--------|00000000|00000000|
[ Tab from: http://www.guitartabs.cc/tabs/b/blink_182/josie_btab_ver_5.html ]
G|--------|--------|--------|--------|--------|--------|--------|--------|
D|--------|--------|--------|--------|--------|--------|--------|--------|
A|22222222|--------|-----2-2|--------|22222222|44444444|--------|--------|
E|--------|22222222|00-00---|00-000-0|--------|--------|00000000|00000000|

Bridge

G||--------|--------|--------|--------|--------|--------|--------|--------|
D||--------|--------|--------|--------|--------|--------|--------|--------|
A||--------|--------|--------|--------|22222222|22222222|22222222|22222222|
E||22222222|22222222|00000000|00000000|--------|--------|--------|--------|

G|--------|--------|--------|--------|--------|--------|--------|--------||
D|--------|--------|--------|--------|--------|--------|--------|--------||
A|--------|--------|44444444|44444444|--------|--------|--------|--------||
E|22222222|22222222|--------|--------|00000000|00000000|00000000|00000000||

Chorus

G||--------|--------|--------|--------|--------|--------|--------|--------|
D||--------|--------|--------|--------|--------|--------|--------|--------|
A||22222222|--------|--------|--------|22222222|--------|--------|--------|
E||--------|22222222|00000000|44442222|--------|22222222|00000000|44442222|

G|--------|--------||
D|--------|--------||
A|22222222|2-------||
E|--------|--------||

Repeat Verse 2

Repeat Bridge

Repeat Chorus (x2)

Repeat Intro 2

Last Chorus

G||--------|--------|--------|--------|--------|--------|--------|--------|
D||--------|--------|--------|--------|--------|--------|--------|--------|
A||22222222|--------|--------|--------|22222222|--------|--------|--------|
E||--------|22222222|00000000|44442222|--------|22222222|00000000|44442222|

G|--------|--------|--------|--------|--------|--------|--------|--------|
D|--------|--------|--------|--------|--------|--------|--------|--------|
A|22222222|--------|--------|--------|22222222|--------|--------|--------|
E|--------|22222222|00000000|44442222|--------|22222222|00000000|44442222|

G|--------||
D|--------||
A|2-------||
E|--------||
Comments