Blink 182 - Josie Chords & Tabs

 

Josie Chords & Tabs

Blink 182 Chords & Tabs

Version: 2 Type: Bass Tab 0 ratings
1 star 2 stars 3 stars 4 stars 5 stars
comments

Josie Bass Tab

Tabbed by Tristan Collins
Email:all_my_fault69@hotmail.com
Song:Josie
Album:Dude Ranch
Artist:Blink 182
Hey guys well I fixed this tab up not sure how right it is cos im a part time bassist ful time guitarist but im sure this is how mark plays it



Intro 1:
  1   &   2   &   3   &   4   &
G|--------------------------------|--------------------------------|
D|4-------------------------------|4-------------------------------|
A|--------------------------------|--------------------------------|
E|--------------------------------|--------------------------------|

  1   &   2   &   3   &   4   &
G|--------------------------------|--------------------------------|
D|4-------------------------------|4-------------------------------|
A|--------------------------------|--------------------------------|
E|--------------------------------|--------------------------------|

Intro 2:
  1   &   2   &   3   &   4   &   
G|-4-4-4-4-4-4-4-4-4-4-4-4-4-4-4-4|-4-4-4-4-4-4-4-4-4-4-4-4-4-4-4-4-|
D|4-4-4-4-4-4-4-4-6-6-6-6-6-6-6-6-|2-2-2-2-2-2-2-2-2-2-2-2-2-2-2-2--|
A|--------------------------------|---------------------------------|
E|--------------------------------|---------------------------------|

  1   &   2   &   3   &   4   &   
G|-4-4-4-4-4-4-4-4-4-4-4-4-4-4-4-4|-4-4-4-4-4-4-4-4-4-4-4-4-4-4-4-4-|
D|4-4-4-4-4-4-4-4-6-6-6-6-6-6-6-6-|2-2-2-2-2-2-2-2-2-2-2-2-2-2-2-2--|
A|--------------------------------|---------------------------------|
E|--------------------------------|---------------------------------|

  1   &   2   &   3   &   4   &   
G|-4-4-4-4-4-4-4-4-4-4-4-4-4-4-4-4|-8-8-8-8-8-8-8-8-4-4-4-4-4-4-4-4-|
D|4-4-4-4-4-4-4-4-6-6-6-6-6-6-6-6-|6-6-6-6-6-6-6-6-2-2-2-2-2-2-2-2--|
A|--------------------------------|---------------------------------|
E|--------------------------------|---------------------------------|
  1   &   2   &   3   &   4   &   
G|-4-4-4-4-4-4-4-4-4-4-4-4-4-4-4-4|--------------------------------|
D|4-4-4-4-4-4-4-4-6-6-6-6-6-6-6-6-|2-2-2-2-2-2-2-2-----------------|
A|--------------------------------|--------------------------------|
E|--------------------------------|--------------------------------|

Verse:

  1   &   2   &   3   &   4   &   
G|--------------------------------|--------------------------------|
D|--------------------------------|--------------------------------|
A|2-2-2-2-2-2-2-2-----------------|--------------------------------|
E|----------------2-2-2-2-2-2-2-2-|0-0-0-0-0-0-0-0-0-0-0-0-0-0-0-0-|

  1   &   2   &   3   &   4   &   
G|--------------------------------|--------------------------------|
D|--------------------------------|--------------------------------|
A|2-2-2-2-2-2-2-2-4-4-4-4-4-4-4-4-|--------------------------------|
E|--------------------------------|0-0-0-0-0-0-0-0-0-0-0-0-0-0-0-0-|
[ Tab from: http://www.guitartabs.cc/tabs/b/blink_182/josie_btab_ver_2.html ]
  1   &   2   &   3   &   4   &   
G|--------------------------------|--------------------------------|
D|--------------------------------|--------------------------------|
A|2-2-2-2-2-2-2-2-----------------|--------------------------------|
E|----------------2-2-2-2-2-2-2-2-|0-0-0-0-0-0-0-0-0-0-0-0-0-0-0-0-|

  1   &   2   &   3   &   4   &   
G|--------------------------------|--------------------------------|
D|--------------------------------|--------------------------------|
A|2-2-2-2-2-2-2-2-4-4-4-4-4-4-4-4-|--------------------------------|
E|--------------------------------|0-0-0-0-0-0-0-0-0-0-0-0-0-0-0-0-|

Bridge:

  1   &   2   &   3   &   4   &   
G|--------------------------------|--------------------------------|
D|--------------------------------|--------------------------------|
A|2-2-2-2-2-2-2-2-----------------|--------------------------------|
E|--------------------------------|--------------------------------|

Pre Chorus:

  1   &   2   &   3   &   4   &   
G|--------------------------------|--------------------------------|
D|--------------------------------|--------------------------------|
A|--------------------------------|--------------------------------|
E|2-2-2-2-2-2-2-2-2-2-2-2-2-2-2-2-|0-0-0-0-0-0-0-0-0-0-0-0-0-0-0-0-|

  1   &   2   &   3   &   4   &   
G|--------------------------------|--------------------------------|
D|--------------------------------|--------------------------------|
A|2-2-2-2-2-2-2-2-2-2-2-2-2-2-2-2-|2-2-2-2-2-2-2-2-2-2-2-2-2-2-2-2-|
E|--------------------------------|--------------------------------|

  1   &   2   &   3   &   4   &   
G|--------------------------------|--------------------------------|
D|--------------------------------|--------------------------------|
A|--------------------------------|4-4-4-4-4-4-4-4-4-4-4-4-4-4-4-4-|
E|2-2-2-2-2-2-2-2-2-2-2-2-2-2-2-2-|--------------------------------|

  1   &   2   &   3   &   4   &   
G|--------------------------------|--------------------------------|
D|--------------------------------|--------------------------------|
A|--------------------------------|--------------------------------|
E|0-0-0-0-0-0-0-0-0-0-0-0-0-0-0-0-|0-0-0-0-0-0-0-0-0-0-0-0-0-0-0-0-|

Chorus:

  1   &   2   &   3   &   4   &   
G|--------------------------------|--------------------------------|
D|--------------------------------|--------------------------------|
A|2-2-2-2-2-2-2-2-----------------|--------------------------------|
E|----------------2-2-2-2-2-2-2-2-|0-0-0-0-0-0-0-0-4-4-4-4-2-2-2-2-|

  1   &   2   &   3   &   4   &                                     **
G|--------------------------------|--------------------------------|--|
D|--------------------------------|--------------------------------|--|
A|2-2-2-2-2-2-2-2-----------------|--------------------------------|2-|
E|----------------2-2-2-2-2-2-2-2-|0-0-0-0-0-0-0-0-4-4-4-4-2-2-2-2-|--|

**End Bar

.:Structure:.
Intro 1    x1
Intro 2    x1
Verse      x1
Bridge     x1
Verse      x1
Pre Chorus x1
Chorus     x1
Bridge     x1
Verse      x1
Pre Chorus x1
Chorus     x2
Bridge     x1
Intro 2    x1
Chorus     x2
**End Riff x1

Comments