Blink 182 - Im Sorry Chords & Tabs

 

Im Sorry Chords & Tabs

Blink 182 Chords & Tabs

Version: 5 Type: Tab 0 ratings
1 star 2 stars 3 stars 4 stars 5 stars
comments

Im Sorry Tab

blink 182
im sorry

intro
e|--------------------------------------------------------|
B|--------------------------------------------------------|
G|-------------------------6---6--------------------------|
D|-------7-9-7-6--------0----7---7------------------------|
A|----0----------7-7-7------------------------------------|
E|--------------------------------------------------------|

verse

e|----------------------------------------------------------------------|
B|----------------------------------------------------------------------|
G|-7777777777777777-------------------9999999999999999-7777777777777777-|
D|-7777777777777777-7777777777777777--9999999999999999-7777777777777777-|X2
A|-5555555555555555-7777777777777777--7777777777777777-5555555555555555-|
E|------------------5555555555555555------------------------------------|
   xxxxxxxxxxxxxxxxxxxxxxxxxxxxxxxxxxxxxxxxxxxxxxxxxxxxxxxxxxxxxxxxxx
                          palm mute

e|-----------------------------------------------------|
B|-----------------------------------------------------|
G|--------------------------------------77--77---------|
D|--------------------------------------77--77---------|
A|-------7-----7-----7------7-------x4--55--55---------|
E|---4-4---4-4---5-5----5-5----------------------------|
     x x   x x   x x    x x

e|-----------------------------------------------------------------|
B|-----------------------------------------------------------------|
G|----------6----------6----------6--------------------------------|
D|-7-7-7-9-----7-7-7-9----7-7-7-9---7-7-7--9-7-6-7-----------------|
A|-----------------------------------------------------------------|
E|-----------------------------------------------------------------|


e|----------------------------------------------------------------|
B|----------------------------------------------------------------|
G|------------99999999-77777777-999999999-------------------------|
D|--77777777--99999999-77777777-999999999------X4-----------------|
A|--77777777--77777777-55555555-777777777-------------------------|
E|--55555555------------------------------------------------------|

e|-----------------------------------------------------------------|
B|-----------------------------------------------------------------|
G|----------6----------6----------6--------------------------------|
D|-7-7-7-9-----7-7-7-9----7-7-7-9---7-7-7--9-7-6-7-----------------|
A|-----------------------------------------------------------------|
E|-----------------------------------------------------------------|

[ Tab from: http://www.guitartabs.cc/tabs/b/blink_182/im_sorry_tab_ver_5.html ]
e|----------------------------------------------------------------|
B|----------------------------------------------------------------|
G|------------99999999-77777777-999999999-------------------------|
D|--77777777--99999999-77777777-999999999------X4-----------------|
A|--77777777--77777777-55555555-777777777-------------------------|
E|--55555555------------------------------------------------------|

   first time
e|----------------------------------------------------------------------|
B|----------------------------------------------------------------------|
G|-7777777777777777-------------------9999999999999999-7777777777777777-|
D|-7777777777777777-7777777777777777--9999999999999999-7777777777777777-|
A|-5555555555555555-7777777777777777--7777777777777777-5555555555555555-|
E|------------------5555555555555555------------------------------------|

then second time
e|-----------------------------------------------------------------------|
B|-----------------------------------------------------------------------|
G|-7777777777777777-------------------9999999999999999-77777777-99999999-|
D|-7777777777777777-7777777777777777--9999999999999999-77777777-99999999-|
A|-5555555555555555-7777777777777777--7777777777777777-55555555-77777777-|
E|------------------5555555555555555-------------------------------------|

e|--------------------------------------------------------|
B|--------------------------------------------------------|
G|-------------------------6---6--------------------------|
D|-------7-9-7-6--------0----7---7------------------------|
A|----0----------7-7-7------------------------------------|
E|--------------------------------------------------------|

im sorry--
e|---------------------------------------------------------|
B|---------------------------------------------------------|
G|-22222222-------------------77777777---------------------|
D|-22222222-22222222-44444444-77777777--X4-----------------|
A|-00000000-22222222-44444444-55555555---------------------|
E|----------00000000-22222222------------------------------|

e|--------------------------------------------------------------|
B|--------------------------------------------------------------|
G|-77777777-------------------9999999999999999-7777777777777777-|
D|-77777777-7777777777777777--9999999999999999-7777777777777777-|
A|-55555555-7777777777777777--7777777777777777-5555555555555555-|
E|----------5555555555555555------------------------------------|
then
e|----------------------------------------------------------------------|
B|----------------------------------------------------------------------|
G|-7777777777777777-------------------9999999999999999-7777777777777777-|
D|-7777777777777777-7777777777777777--9999999999999999-7777777777777777-|
A|-5555555555555555-7777777777777777--7777777777777777-5555555555555555-|
E|------------------5555555555555555------------------------------------|

e|-----------------------------------------------------------------|
B|-----------------------------------------------------------------|
G|----------6----------6----------6--------------------------------|
D|-7-7-7-9-----7-7-7-9----7-7-7-9---7-7-7--9-7-6-7-----------------|
A|-----------------------------------------------------------------|
E|-----------------------------------------------------------------|

to the end
Comments