Blink 182 - Im Sorry Chords & Tabs

 

Im Sorry Chords & Tabs

Blink 182 Chords & Tabs

Version: 4 Type: Tab 0 ratings
1 star 2 stars 3 stars 4 stars 5 stars
comments

Im Sorry Tab

                              I'M SORRY
band: blink 182
song: i'm sorry
album: dude ranch
track: 15
tuning: regular E
tabbed by: J.Strizzle

intro
                              4x's
E----------------------------------------------------------------
B--------------------2-2-----------------------------------------
G------2-4-2-1---------------------------------------------------
D--------------2-2-0---------------------------------------------
A---0------------------------------------------------------------
E----------------------------------------------------------------

(palm muted)
E----------------------------------------------------------------
B----------------------------------------------------------------
G----7-----9--7--7-----9--7--9-----------------------------------
D----7--7--9--7--7--7--9--7--9--7--------------------------------
A----5--7--7--5--5--7--7--5--7--7--let ring----------------------
E-------5-----------5-----------5--------------------------------
 (some palm mutes)
E----------------------------------------------------------------
B----------------------------------------------------------------
G----------------------------------------------------------------
D---------------------------------------------------2x's---------
A----7-----7-----7-----7-----7-----7-----7-----7-----------------
E--5---5-5---5-5---5-5---5-0---5-0---5-0---5-0-------------------
   x   x x   x x   x x   x x   x x   x x   x x 

 play all of the picking 4x's
E------------------------------------------------------------------
B------------------------------------------------------------------
G-7--9------------6-------------6-------------6--------------------
D-7--9----7-----9---7---7-----9---7---7-----9---7---7-----9-7-6-7--
A-5--7------7-7-----------7-7-----------7-7-----------7-7----------
E------------------------------------------------------------------

 (in the background)
E----------------------------------------------------------------
B----------------------------------------------------------------
G-----7-----7--9-------------------------------------------------
D--7--7--9--7--9-------------------------------------------------
A--7--5--9--5--7-------------------------------------------------
E--5-----7-------------------------------------------------------
[ Tab from: http://www.guitartabs.cc/tabs/b/blink_182/im_sorry_tab_ver_4.html ]
all of the verses are played this way   (...just yesterday...)
E----------------------------------------------------------------
B----------------------------------------------------------------
G-----9--7--9----------------------------------------------------
D--7--9--7--9----------------------------------------------------
A--7--7--5--7----------------------------------------------------
E--5-------------------------------------------------------------
         (4x's and then go pack to the picking)

  pre chorus             ...dont bide your time...
E----------------------------------------------------------------
B----------------------------------------------------------------
G--7-----------9--7--7------------9--7--7------------------------
D--7-pause--7--9--7--7--pause--7--9--7--7------------------------
A--5--------7--7--5--5---------7--7--5--9------------------------
E-----------5------------------5---------------------------------
   after this do the picking from the intro

  interlude     
E----------------------------------------------------------------
B----------------------------------------------------------------
G-----------7----------------------------------------------------
D--7--2--4--7----------------------------------------------------
A--7--2--4--5----------------------------------------------------
E--5--0--2-------------------------------------------------------
 after this wait for the bass and then jump back to the pre chorus
 and then just do the picking untill the end of the song.

 this is my 1st tab ever but dont worry im 100% possitive that its
 perfect. there were no tabs for this song so i made my very own. you 
 can figure out the struming on your own...its not very difficult. 
 there is something weird going on in the background of the interlude
 and i think its just picking the 17th fret on the "a" string; i didnt
 put it in the tab b/c i wasnt sure if it was right...but what do i know?

 lyrics:
 
Don't bide your time 
'cause it is almost over 
and I know you're down 
I'll see you around 

And I know it hurts 
but you're just getting older 
and I know you'll win 
you'll do it once again 

Just yesterday 
it always seemed like such a dream 
we're unstoppable, indestructible 
nothing happens to our machine 

And there's no harm 
at least nothing we can see 
as for you, not so true 
you couldn't choose where his road would lead 

What a loss 
you just lost all your sleep 
and we've always thought 
that this could never happen, you see 

That it's so hard 
you gotta get up on your feet 
'cause the only way, I gotta say 
is to move on through the week 

Don't bide your time 
'cause it is almost over 
and I know you're down 
and I'll see you around 

And I know it hurts 
but you're just getting older 
and I know you'll win 
you'll do it once again 

Sorry [x16] 
(sorry [x16]) it's happened to you [x4] 

Don't bide your time 
'cause it is almost over 
and I know you're down 
and I'll see you around 

And I know it hurts 
but you're just getting older 
and I know you'll win 
you'll do it once again
Comments