Blink 182 - Im Sorry Chords & Tabs

 

Im Sorry Chords & Tabs

Blink 182 Chords & Tabs

Version: 2 Type: Tab 1 rating
1 star 2 stars 3 stars 4 stars 5 stars
comments

Im Sorry Tab

Intro
E------------------------------------------------------------------
A--------------------------6---6-----------------------------------
D--------7-9-7-0-----0-------7---7------------------------------
G-----0----------9-9---0----------------------------------------
B------------------------------------------------------------------
E----------------------------------------------------------------x4

Verse
E------------------------------------------------------------------
A------------------------------------------------------------------
D--9------------11-----9----------11----------9----11---------------
G--9x16---9-----11x16--9x32-9-----11x16-------9x8--11x8---9---------
B--7------9x16--9------7----9x16--9-----------7----9------9let ring-
E---------7-----------------7-----------------------------7---------
P.M.


E------------------------------------------------------------------
A------------------------------------------------------------------
D------------------------11-11-------------------------------------
G------------------------11-11let ring-----------------------------
B----------------7-------9--9--------------------------------------
E--------{5}{5}----x6----------------------------------------------
{P.M.}
[ Tab from: http://www.guitartabs.cc/tabs/b/blink_182/im_sorry_tab_ver_2.html ]
Pre-verse
E------------------------------------------------------------------
A-----00h2----00h2-----00h2----00h2--------------------------------
D--2-------2--------4--------7-------------------------------------
G--2-------2--------4--------7-------------------------------------
B--0-------0--------2--------5-------------------------------------
E----------------------------------------------------------------x2

verse 2
E-------------------------------------------------------------------
A-------------------------------------------------------------------
D--9-------------11-----9-------------11-----9----11----------------
G--9x16--x-9-----11x16--9x16--x-9-----11x16--9x8--11x8--------------
B--7-----x-9x16--9------7-----x-9x16---9-----7-----9----------------
E--------x-7------------------x-7-----------------------------------

Then intro again

Bridge
E-------------------------------------------------------------------
A-------------------------------------------------------------------
D----------11------9-----11------------11-----9----11---------------
G---9------11x16---9x8---11x8--x-9-----11x16--9x8--11x8-------------
B---9x16---9-------7-----9-----x-9x16--9------7----9----------------
E---7--------------------------x-7----------------------------------

The ending fades,then you hear this long ass beep,then Marks dog drinks his piss,
and you just hear a dog drinkin water,and mark sayin "good boy!" and then it
ends. If you have any quesitions,e-mail me at gtr4lynskyn@aol.com

Comments