Blink 182 - Im Sorry Chords & Tabs

 

Im Sorry Chords & Tabs

Blink 182 Chords & Tabs

Version: 1 Type: Tab 1 rating
1 star 2 stars 3 stars 4 stars 5 stars
comments

Im Sorry Tab

Intro 4x

let this part ring
[ Tab from: http://www.guitartabs.cc/tabs/b/blink_182/im_sorry_tab.html ]
|--------------------------------------------------|
|--------------------------------------------------|
|--------------------------------6--------6--------|
|----7--9--7--6------------0--------7-------7------|
|----------------7--7--7------7--------------------|
|-5------------------------------------------------|






riff #1

|--------------------------------|
|--------------------------------|
|--------------------------------|
|--------------------------------|
|----7--------7-------7--------7-|
|-4------4-4-----5-5-----5-5-----|
Comments