Blink 182 - Im Lost Without You Chords & Tabs

 

Im Lost Without You Chords & Tabs

Blink 182 Chords & Tabs

Version: 4 Type: Tab 0 ratings
1 star 2 stars 3 stars 4 stars 5 stars
comments

Im Lost Without You Tab

Piano pice at the beginning:
e]-----------------------------------------------------------------------]
B]-----------------------------------------------------------------------]
G]--9----------9-----------9------------9--------------------------------]
D]----7---7-------6---6------7---7--------6---6--------------------------]
A]------0-----------0----------0------------0----------------------------]
E]-----------------------------------------------------------------------]
Piano goes through whole first verse


Chorus:
e]-----------------------------------------------------------------------]
B]-----------------------------------------------------------------------]
G]-----------------------------------------------------------------------]
D]--7777777777---6666666666---4444444444---6666666666--------------------]
A]--7777777777---7777777777---2222222222---7777777777--------------------]
E]--5555555555---4444444444---2222222222---4444444444--------------------]
  This sounded pretty close to me, figure out the struming on your own, its not that hard

Verse 2:
e]-----------------------------------------------------------------------]
B]-----------------------------------------------------------------------]
G]-----------------------------------------------------------------------]
D]--77777777---66666666---44444444---66666666----------------------------]
A]--77777777---77777777---22222222---77777777----------------------------]
E]--55555555---44444444---22222222---44444444----------------------------]
sounds like just struming down pretty shoftly
[ Tab from: http://www.guitartabs.cc/tabs/b/blink_182/im_lost_without_you_tab_ver_4.html ]
Play Chorus again and keep playing it when the guitar riff solo thing comes in...
Guitar solo after chorus:
e]-----------------------------------------------------------------------]
B]--10---10---10---10---12---12---12---12--------------------------------]
G]-----9----9----9----9----9----9----9----9------------------------------]
D]-----------------------------------------------------------------------]
A]-----------------------------------------------------------------------]
E]-----------------------------------------------------------------------]

Piano pice after guitar solo:

start out like this
e]-----------------------------------------------------------------------]
B]-----------------------------------------------------------------------]
G]--6---6-----------------------6---6------------------------------------]
D]----7---7------6-7-9-9----7-----7---7------6-7-9-9---------------------]
A]-----------0-0----------0---0----------0-0-----------------------------]
E]-----------------------------------------------------------------------]
Then repeat this about 3 times
e]-----------------------------------------------------------------------]
B]-----------------------------------------------------------------------]
G]-----------6---6-------------------------------------------------------]
D]----7----7---7--------6-7-9-9------------------------------------------]
A]--0---0-----------0-0--------------------------------------------------]
E]-----------------------------------------------------------------------]

Then play the chorus with the guitar solo in the background 



If you have any comments or questions e-mail me at JPike3000@netscape.net or if
u have any suggestions on teh 2nd verse. This is my first tab so thanks a lot and
enjoy.   ~Jared~
Comments