Blink 182 - Im Lost Without You Chords & Tabs

 

Im Lost Without You Chords & Tabs

Blink 182 Chords & Tabs

Version: 1 Type: Tab 1 rating
1 star 2 stars 3 stars 4 stars 5 stars
comments

Im Lost Without You Tab

artist:blink 182

posted by:I_Brake_For_blink182

e-mail me @: ibrakeforblink_182@yahoo.com


Piano part at the beginning:

e]-----------------------------------------------------------------------]
b]-----------------------------------------------------------------------]
g]--9----------9-----------9------------9--------------------------------]
d]----7-7-7-7-----6-6-6-6----7-7-7-7------6-6-6-6------------------------]
a]-----------------------------------------------------------------------]
E]-----------------------------------------------------------------------]

Play the piano part thru the entire first verse 

Chorus:
[ Tab from: http://www.guitartabs.cc/tabs/b/blink_182/im_lost_without_you_tab.html ]
e]-----------------------------------------------------------------------]
b]-----------------------------------------------------------------------]
g]-----------------------------------------------------------------------]
d]--7---7---7--7---6--6--6--6--4--4--4--4--6--6--6--6--------------------]
a]--7---7---7--7---6--6--6--6--4--4--4--4--6--6--6--6--------------------]
E]--5---5---5--5---4--4--4--4--2--2--2--2--4--4--4--4--------------------]
(im not sure that the chorus is right. i just went with what i thought sounded close).


for 2nd verse, i'd just play the chorus, just alot softer.

 guitar riff 

e]-----------------------------------------------------------------------]
b]--10---10---10---10---12---12---12---12--------------------------------]
g]-----9----9----9----9----9----9----9----9------------------------------]
d]-----------------------------------------------------------------------]
a]-----------------------------------------------------------------------]
E]-----------------------------------------------------------------------]
Comments