Blink 182 - I Wont Be Home For Christmas Chords & Tabs

 

I Wont Be Home For Christmas Chords & Tabs

Blink 182 Chords & Tabs

Version: 7 Type: Tab 0 ratings
1 star 2 stars 3 stars 4 stars 5 stars
comments

I Wont Be Home For Christmas Tab

OK, I've had enough with the
crap tabs for this song. It's
not a hard song. Here is the real
thing.

INTRO
e|-------------------------------------------------------------------------|
B|-------------------------------------------------------------------------|
G|-0-00-4-00-5-00-4-0---0-4-0---0-4-0---00-4-00-5-00-4-2-0---0-4-0---0-4-0-| X2
D|--------------------22------22-------------------------------------------|
A|-------------------------------------3-------------------33------55------|
E|-------------------------------------------------------------------------|

VERSE
e|---------------------------------------------------------------------|
B|---------------------------------------------------------------------|
G|---------0--0--0----------0--0--0--5-------0--0--0--7----------------| X2
D|-5----------------2----------------5----------------7-------4--4--4--|
A|-5----------------2----------------3-333333-33-33-3-5-555555-55-55-5-|
E|-3-333333-33-33-3-0-000000-00-00-0-----------------------------------|
pm   ****** ** ** *   ****** ** ** *   ****** ** ** *   ****** ** ** *

BRIDGE #1
e|----------------------------|
B|----------------------------|
G|--0-0-0-0-0-0-0-0-----------|
D|--5-5-5-5-5-5-5-5-----------|
A|----------------------------|
E|----------------------------|

VERSE AGAIN...
e|---------------------------------------------------------------------|
B|---------------------------------------------------------------------|
G|---------0--0--0----------0--0--0--5-------0--0--0--7----------------| X2
D|-5----------------2----------------5----------------7-------4--4--4--|
A|-5----------------2----------------3-333333-33-33-3-5-555555-55-55-5-|
E|-3-333333-33-33-3-0-000000-00-00-0-----------------------------------|
pm   ****** ** ** *   ****** ** ** *   ****** ** ** *   ****** ** ** *

CHORUS
e|----------------------------------|
B|----------------------------------|
G|---------777777----------555555---| X3
D|-555555--777777--222222--555555---|
A|-555555--555555--222222--333333---|
E|-333333----------000000-----------|
[ Tab from: http://www.guitartabs.cc/tabs/b/blink_182/i_wont_be_home_for_christmas_tab_ver_7.html ]
ON 4TH TIME DO THIS:
e|----------------------------------------|
B|----------------------------------------|
G|---------777777----------555555-5-5-5-5-|
D|-555555--777777--222222--555555-5-5-5-5-|
A|-555555--555555--222222--333333-3-3-3-3-|
E|-333333----------000000-----------------|

INTRO AGAIN...
e|-------------------------------------------------------------------------|
B|-------------------------------------------------------------------------|
G|-0-00-4-00-5-00-4-0---0-4-0---0-4-0---00-4-00-5-00-4-2-0---0-4-0---0-4-0-| X2
D|--------------------22------22-------------------------------------------|
A|-------------------------------------3-------------------33------55------|
E|-------------------------------------------------------------------------|

VERSE AGAIN...
e|---------------------------------------------------------------------|
B|---------------------------------------------------------------------|
G|---------0--0--0----------0--0--0--5-------0--0--0--7----------------| X2
D|-5----------------2----------------5----------------7-------4--4--4--|
A|-5----------------2----------------3-333333-33-33-3-5-555555-55-55-5-|
E|-3-333333-33-33-3-0-000000-00-00-0-----------------------------------|
pm   ****** ** ** *   ****** ** ** *   ****** ** ** *   ****** ** ** *

CHORUS AGAIN...
e|----------------------------------|
B|----------------------------------|
G|---------777777----------555555---| X3
D|-555555--777777--222222--555555---|
A|-555555--555555--222222--333333---|
E|-333333----------000000-----------|

AND YES... ON 4TH TIME DO THIS:
e|----------------------------------------|
B|----------------------------------------|
G|---------777777----------555555-5-5-5-5-|
D|-555555--777777--222222--555555-5-5-5-5-|
A|-555555--555555--222222--333333-3-3-3-3-|
E|-333333----------000000-----------------|

BRIDGE #2
e|--------------------------------------------------------|
B|--------------------------------------------------------|
G|--------------------------------------------------------| X2
D|-5------5------5------5------5------5------5------5-----|
A|---5-0----5-0----5-0----5-0----5-0----5-0----5-0----5-0-|
E|--------------------------------------------------------|

OUTRO
e|----------------------|
B|----------------------|
G|------------4444-5555-| X4
D|--5555-5555-4444-5555-|
A|--5555-5555-2222-3333-|
E|--3333-7777-----------|

That's about as close as I can get it. I had seen alot of mistakes in other people's
tabs so I fixed them and put them altogether.

It's a pretty easy song to play so it shouldn't take you long to get it.

So... Enjoy the tab!
Comments