Blink 182 - I Wont Be Home For Christmas Chords & Tabs

 

I Wont Be Home For Christmas Chords & Tabs

Blink 182 Chords & Tabs

Version: 5 Type: Tab 0 ratings
1 star 2 stars 3 stars 4 stars 5 stars
comments

I Wont Be Home For Christmas Tab

I WON'T BE HOME FOR CHRISTMAS

Intro
E-----------------------------------------------------------------------------------|
B-----------------------------------------------------------------------------------|
G---------4------5------4-0----------4-0---------4-0-7------2------5------4s2p0-----|
D-5-0-0-------0-0---0-0-------2--0-0------0-0-0------7--0-0----0-0---0-0------------|
A-5---------------------------2----------------------5------------------------------|
E-3---------------------------0-----------------------------------------------------|

E-----------------------------------------------------------------------------------|
B-----------------------------------------------------------------------------------|
G--5------4-0--7------4-0-----------------------------------------------------------|
D--5-0-0-------7-0-0----------------------------------------------------------------|
A--3-----------5--------------------------------------------------------------------|
E-----------------------------------------------------------------------------------|

Play 2 times
E-----------------------------------------------------------------------------------|
B-----------------------------------------------------------------------------------|
G-----------------------------------5-xxxxxx-5-x-555-7-xxxxxx-7-x-777---------------|
D-5-xxxxxx-5-x-555-2-xxxxxx-2-x-222-5-xxxxxx-5-x-555-7-xxxxxx-7-x-777---------------|
A-5-xxxxxx-5-x-555-2-xxxxxx-2-x-222-3-xxxxxx-3-x-333-5-xxxxxx-5-x-555---------------|
E-3-xxxxxx-3-x-333-0-xxxxxx-0-x-000-------------------------------------------------|
[ Tab from: http://www.guitartabs.cc/tabs/b/blink_182/i_wont_be_home_for_christmas_tab_ver_5.html ]
E-----------------------------------------------------------------------------------|
B-----------------------------------------------------------------------------------|
G-77777777777-----------------------------------------------------------------------|
D-xxxxxxxxxxx-----------------------------------------------------------------------|
A-55555555555-----------------------------------------------------------------------|
E-----------------------------------------------------------------------------------|

Play 2 times
E-----------------------------------------------------------------------------------|
B-----------------------------------------------------------------------------------|
G-----------------------------------5-xxxxxx-5-x-555-7-xxxxxx-7-x-777---------------|
D-5-xxxxxx-5-x-555-2-xxxxxx-2-x-222-5-xxxxxx-5-x-555-7-xxxxxx-7-x-777---------------|
A-5-xxxxxx-5-x-555-2-xxxxxx-2-x-222-3-xxxxxx-3-x-333-5-xxxxxx-5-x-555---------------|
E-3-xxxxxx-3-x-333-0-xxxxxx-0-x-000-------------------------------------------------|

Play this for about 15 seconds then repeat everything
E-----------------------------------------------------------------------------------|
B-----------------------------------------------------------------------------------|
G-7---------------------------------------------------------------------------------|
D-x---------------------------------------------------------------------------------|
A-5---------------------------------------------------------------------------------|
E-----------------------------------------------------------------------------------|
Comments