Blink 182 - I Wont Be Home For Christmas Live Chords & Tabs

 

I Wont Be Home For Christmas Live Chords & Tabs

Blink 182 Chords & Tabs

Version: 1 Type: Tab 0 ratings
1 star 2 stars 3 stars 4 stars 5 stars
comments

I Wont Be Home For Christmas Live Tab

I've heard mp3's of it live. This is what i think Tom play.

Intro
E|----------------------------------------------------
B|----------------------------------------------------
G|-0-0-4-0-5-0-4-0---0-4-0---0-4-0----0-2-0-5-0-4/2-0-
D|------------------2-------2--------0----------------
A|----------------------------------------------------
E|----------------------------------------------------

E|----------------------------
B|----------------------------
G|--0-4-0---0-4-0-------------
D|----------------------------
A|-3-------5------------------
E|----------------------------

Verse . = pm
E|-------------------------------------------------------------------------
B|-------------------------------------------------------------------------
G|-------0-0-0-------0-0-0--5----0-0-0--7----------------------------------
D|--5-----------2-----------5-----------7----4-4-4-------------------------
A|--5-----------2-----------3-333-3-3---5-555-5-5--------------------------
E|--3-333-3-3---0-000-0-0--------------------------------------------------
      ........    ........    ........    ........
[ Tab from: http://www.guitartabs.cc/tabs/b/blink_182/i_wont_be_home_for_christmas_live_tab.html ]
Bridge thingy
E|----------------------------
B|----------------------------
G|--0-------------------------
D|--5-------------------------
A|----------------------------
E|----------------------------

Verse

Chorus
e----------------------------------
B----------------------------------
G---------777777----------555555---
D-555555--777777--222222--555555---
A-555555--555555--222222--333333---
E-333333----------000000-----------

Chorus Ending
e------------------------------------
B------------------------------------
G---------777777----------5555--7777-
D-555555--777777--222222--5555--5555-
A-555555--555555--222222--3333--5555-
E-333333----------000000-------------


Intro

Verse 

Chorus

Bridge
I think Tom only play
e------
B------
G------
D--5-5-
A---5--
E------
but I think it sounds better with
e-------------------------
B-------------------------
G-------------------------
D---5-5---5-5---5-5---5-5-
A----5-----5-----5-----5--
E--3-----5-----7-----8----

Or

e-------------------------
B-------------------------
G---0-0--0-0--0-0--0-0----
D----0----0----0----0----- It's kinda the same
A-------0----2----3-------
E--3----------------------

Outro
e----------------------
B----------------------
G------------4444-5555-
D--5555-5555-4444-5555-
A--5555-5555-2222-3333-
E--3333-7777-----------

That was all! Sweden rules! Come to us blink.
In real song Tom only play the Bridge thingy through whole chorus. 
//Olle Sidvall
Comments