Blink 182 - I Wont Be Home For Christmas Chords & Tabs

 

I Wont Be Home For Christmas Chords & Tabs

Blink 182 Chords & Tabs

Version: 2 Type: Bass Tab 0 ratings
1 star 2 stars 3 stars 4 stars 5 stars
comments

I Wont Be Home For Christmas Bass Tab

!!! USA !!!Intro
G|-----------------------------------------------|
D|----------12-------12----12---------9----9---9-|
A|-10-10-10----10-10----10------7-7-7--7-7---7---|
E|-----------------------------------------------|

             Intro Continued
G|---------------------------------------------------------------------------|
D|-----------7----7---7--------5-----------7---------------------------------|
A|-----5-5-5--5-5---5----3-3-3---3---5-5-5---5-------------------------------|
E|---------------------------------------------------------------------------|

              Verse
G|---------------------------------------------------------------------------|
D|---------------------------------------------------------------------------|
A|--------------------------3-3-3-3-3----5-5-5-5-5---------------------------|
E|3-3-3-3-3----0-0-0-0-0-----------------------------------------------------|
[ Tab from: http://www.guitartabs.cc/tabs/b/blink_182/i_wont_be_home_for_christmas_btab_ver_2.html ]
              Verse (play this one certain times, you'll hear the added part)
G|---------------------------------------------------------------------------|
D|---------------------------------------------------------------------------|
A|--------------------------3-3-3-3-3----5-5-5-5-5----3-2-0------------------|
E|3-3-3-3-3----0-0-0-0-0-----------------------------------------------------|

              Chorus
G|---------------------------------------------------------------------------|
D|---------------------------------------------------------------------------|
A|-------------5-5-5-5-5-----------------3-3-3-3-3---------------------------|
E|3-3-3-3-3-----------------0-0-0-0-0----------------------------------------|

             Bass Solo (well sort of a solo) - outro
G|---------------------------------------------------------------------------|
D|------12-------12--------12-------12------9-----9------5-----5-------------|
A|10-10----10-10-----12-12----12-12-----7-7---7-7----3-3---3-3---------------|
E|---------------------------------------------------------------------------|

Comments