Blink 182 - I Miss You Chords & Tabs

 

I Miss You Chords & Tabs

Blink 182 Chords & Tabs

Version: 9 Type: Tab 0 ratings
1 star 2 stars 3 stars 4 stars 5 stars
comments

I Miss You Tab

   
from Blink 182
I Miss You
Words and Music by Travis Barker, Tom De Longe and Mark Hoppus
Moderately = 110bpm


-Tune Down 1 1/2 steps:
(low to high) C#-F#-B-E-G#-C#
-Tom uses this tuning on most of the album, I usually tab it in normal
 tuning but this song sounds much better in 1 1/2 step down tuning.


Intro (After 2 Bar Drum Intro)
|-----------------|-----------------|-----------------|-----------------|
|-----------------|-----------------|-----------------|-----------------|
|-----------------|-----------------|-----------------|-----------------|
|----000-0--00----|----000-0--00----|----000-0--00----|----000-0--00-0--|
|----555/9--99----|----555/9--99----|(9)-555/9--99----|----555/9--99\5--|
|-----------------|-----------------|-----------------|-----------------|

|-----------------|-----------------|-----------------|-----------------|
|-----------------|-----------------|-----------------|-----------------|
|-----------------|-----------------|-----------------|-----------------|
|----000-0--00----|(0)-000-0--00----|(0)-000-0--00----|----000-0--00-0--|
|----555/9--99----|----555/9--99----|----555/9--99----|----555/9--99-5--|
|-----------------|-----------------|-----------------|-----------------|

|-----------------|-----------------|-----------------|-----------------|
|-----------------|-----------------|-----------------|-----------------|
|-----------------|-----------------|-----------------|-----------------|
|----000-0--00----|(0)-000-0--00----|(0)-000-0--00----|----000-0--00-0--|
|----555/9--99----|----555/9--99----|----555/9--99----|----555/9--99-5--|
|-----------------|-----------------|-----------------|-----------------|

Verse
|-----------------|-----------------|-----------------|-----------------|
|-----------------|-----------------|-----------------|-----------------|
|-----------------|-----------------|-----------------|-----------------|
|----000-0--00----|(0)-000-0--00----|(0)-000-0--00----|----000-0--00-0--|
|----555/9--99----|----555/9--99----|----555/9--99----|----555/9--99-5--|
|-----------------|-----------------|-----------------|-----------------|

|-----------------|-----------------|-----------------|-----------------|
|-----------------|-----------------|-----------------|-----------------|
|-----------------|-----------------|-----------------|-----------------|
|----000-0--00----|(0)-000-0--00----|(0)-000-0--00----|----000-0--00-0--|
|----555/9--99----|----555/9--99----|----555/9--99----|----555/9--99-5--|
|-----------------|-----------------|-----------------|-----------------|

|-----------------|-----------------|-----------------|-----------------|
|-----------------|-----------------|-----------------|-----------------|
|-----------------|-----------------|-----------------|-----------------|
|(0)-000-0--00----|----000-0--00----|(0)-000-0--00----|----000-0--00-0--|
|(5)-555/9--99----|----555/9--99----|----555/9--99----|----555/9--99\5--|
|-----------------|-----------------|-----------------|-----------------|
[ Tab from: http://www.guitartabs.cc/tabs/b/blink_182/i_miss_you_tab_ver_9.html ]
Chorus
|---------------------------------|---------------------------------|
|---------------------------------|---------------------------------|
|-7---7---7-7-7-7-----7---7-7-7-7-|-7---7---7-7-7\6-----6---6-6-6-6-|
|-0---0---0-0-0-0-----0---0-0-0-0-|-0---0---0-0-0-0-----0---0-0-0-0-|
|-5---5---5-5-5-5-----5---5-5-5-5-|-5---5---5-5-5\4-----4---4-4-4-4-|
|---------------------------------|---------------------------------|

|---------------------------------|---------------------------------|
|---------------------------------|---------------------------------|
|\4---4---4-4-4-4-----6---6-6-6/7-|-----7---7-7-7-7-----7---7-7-7-7-|
|-0---0---0-0-0-0-----0---0-0-0-0-|-----0---0-0-0-0-----0---0-0-0-0-|
|\2---2---2-2-2/4-----4---4-4-4/5-|-----5---5-5-5-5-----5---5-5-5-5-|
|---------------------------------|---------------------------------|

Fill
|-----------------|-----------------|
|-----------------|-----------------|
|-----------------|-----------------|
|-0~~~~~~~~~~~~~~-|-----------------|
|-5~~~~~~~~~~~~~~-|-----------------|
|-----------------|-----------------|

Verse 2
|-----------------|-----------------|-----------------|-----------------|
|-----------------|-----------------|-----------------|-----------------|
|-----------------|-----------------|-----------------|-----------------|
|----000-0--00----|----000-0--00----|----000-0--00----|----000-0--00-0--|
|----555/9--99----|----555/9--99----|(9)-555/9--99----|----555/9--99\5--|
|-----------------|-----------------|-----------------|-----------------|

|-----------------|-----------------|-----------------|-----------------|
|-----------------|-----------------|-----------------|-----------------|
|-----------------|-----------------|-----------------|-----------------|
|----000-0--00----|(0)-000-0--00----|(0)-000-0--00----|----000-0--00-0--|
|----555/9--99----|----555/9--99----|----555/9--99----|----555/9--99-5--|
|-----------------|-----------------|-----------------|-----------------|

|-----------------|-----------------|-----------------|-----------------|
|-----------------|-----------------|-----------------|-----------------|
|-----------------|-----------------|-----------------|-----------------|
|----000-0--00----|(0)-000-0--00----|(0)-000-0--00----|----000-0--00-0--|
|----555/9--99----|----555/9--99----|----555/9--99----|----555/9--99-5--|
|-----------------|-----------------|-----------------|-----------------|

|-----------------|-----------------|-----------------|-----------------|
|-----------------|-----------------|-----------------|-----------------|
|-----------------|-----------------|-----------------|-----------------|
|(0)-000-0--00----|----000-0--00----|(0)-000-0--00----|----000-0--00-0--|
|(5)-555/9--99----|----555/9--99----|----555/9--99----|----555/9--99\5--|
|-----------------|-----------------|-----------------|-----------------|

Interlude
|-----------------|-----------------|-----------------|-----------------|
|-----------------|-----------------|-----------------|-----------------|
|-----------------|-----------------|-----------------|-----------------|
|----000-0--00----|----000-0--00-0--|(0)-000-0--00----|----000-0--00----|
|----555/9--99----|----555/9--99\5--|(5)-555/9--99----|----555/9--99----|
|-----------------|-----------------|-----------------|-----------------|

|-----------------|-----------------|-----------------|-----------------|
|-----------------|-----------------|-----------------|-----------------|
|-----------------|-----------------|-----------------|-----------------|
|----000-0--00----|(0)-000-0--00-0--|----000-0--00----|----000-0--00----|
|----555/9--99----|----555/9--99\5--|----555/9--99----|----555/9--99----|
|-----------------|-----------------|-----------------|-----------------|



Intro
Verse
Chorus  x2
Fill
Verse 2
Chorus  x2
Fill
Interlude
Chorus  x8 (fade)
Comments