Blink 182 - I Miss You Chords & Tabs

 

I Miss You Chords & Tabs

Blink 182 Chords & Tabs

Version: 7 Type: Tab 0 ratings
1 star 2 stars 3 stars 4 stars 5 stars
comments

I Miss You Tab

----------------------------------------------------------------------------
			     I Miss You - Blink 182
----------------------------------------------------------------------------

Tuning: drop D tuning

   INTRO
e|------------------------------------------|
B|------------------------------------------|
G|------------------------------------------|
D|----9/---13--13--13-----------------------|
A|----9/---14--14--14---x12-----------------|
D|----9/---13--13--13-----------------------|

   1st Verse
e|------------------------------------------|
B|------------------------------------------|
G|------------------------------------------|
D|----9/---13--13--13-----------------------|
A|----9/---14--14--14---x12-----------------|
D|----9/---13--13--13-----------------------|


    CHORUS
e|------------------------------------------|
B|------------------------------------------|
G|------------------------------------------|
D|----9---11---13---4---6---8---9-----------|
A|----9---11---13---4---6---8---9---x2------|
D|----9---11---13---4---6---8---9-----------|


e|-------------------------------------------|
B|-------------------------------------------|
G|-------------------------------------------|
D|----9--------------------------------------|
A|----9---let-ring---------------------------|
D|----9--------------------------------------|
[ Tab from: http://www.guitartabs.cc/tabs/b/blink_182/i_miss_you_tab_ver_7.html ]
   2nd verse
e|-------------------------------------------|
B|-------------------------------------------|
G|-------------------------------------------|
D|----9/---13--13--13------------------------|
A|----9/---14--14--14---x12------------------|
D|----9/---13--13--13------------------------|

CHORUS
e|-------------------------------------------|
B|-------------------------------------------|
G|-------------------------------------------|
D|----9---11---13---4---6---8---9------------|
A|----9---11---13---4---6---8---9---x2-------|
D|----9---11---13---4---6---8---9------------|

e|--------------------------------------------|
B|--------------------------------------------|
G|--------------------------------------------|
D|----9---------------------------------------|
A|----9---let-ring----------------------------|
D|----9---------------------------------------|

e|-------------------------------------------|
B|-------------------------------------------|
G|-------------------------------------------|
D|----9/---13--13--13------------------------|
A|----9/---14--14--14---x4-------------------|
D|----9/---13--13--13------------------------|

CHORUS
e|-------------------------------------------|
B|-------------------------------------------|
G|-------------------------------------------|
D|----9---11---13---4---6---8---9------------|
A|----9---11---13---4---6---8---9---till-end-|
D|----9---11---13---4---6---8---9------------|

| /  slide up
| \  slide down
Comments