Blink 182 - I Miss You Chords & Tabs

 

I Miss You Chords & Tabs

Blink 182 Chords & Tabs

Version: 6 Type: Tab 0 ratings
1 star 2 stars 3 stars 4 stars 5 stars
comments

I Miss You Tab

   
zup this tabs are from the pepsi smash live performance, i took'em well
everything is exactly how they played it except for the part next the 2nd chorus....
well if y'all want more tabs e-mail me at estazionroots@hotmail.com

i'm out

                      I MISS YOU
Intro

e|-----------------|
B|-----------------|
G|-----------------|
D|-9-9-/-13-13-\-9-| x12
A|-x-x-/--x--x-\-x-|
E|-7-7-/-11-11-\-7-|

Mark Verse

e|-----------------|
B|-----------------|
G|-----------------|
D|-9-9-/-13-13-\-9-| x12
A|-x-x-/--x--x-\-x-|
E|-7-7-/-11-11-\-7-|


Chorus

e|-------------------------------------|
B|-------------------------------------|
G|-------------------------------------|
D|--9-9-9-9-/11-11-11-11-/13-13-13-13--| 
A|--x-x-x-x-/x--x--x--x--/xx---x--x---|
E|--7-7-7-7-/9- 9- 9- 9--/11-11-11-11--|              x2

e|-----------------------------------------------------------------|
B|-----------------------------------------------------------------|
G|-9-9-9-9-/-11-11-11-11-/-13-13-13-13-/-15-15-15-15-/-16-16-16-16-|
D|-x-x-x-x-/-x-x--x--x--/-x-x-x-x-/-x-x-x-x--/-x--x-x-x--| 
A|-7-7-7-7-/-9--9-9-9--/-11-11-11-11-/-13-13-13-13-/-14-14-14-14-|
E|-----------------------------------------------------------------|

Tom Verse
[ Tab from: http://www.guitartabs.cc/tabs/b/blink_182/i_miss_you_tab_ver_6.html ]
e|-----------------------------------------------------|
B|-----------------------------------------------------|
G|-----------------------------------------------------|
D|--9--9--9--9-/-9--9--9--9-/-6--6--6--6-/-9--9--9--9--|    x4
A|--x--x--x--x-/-x--x--x--x-/-x--x--x--x-/-x--x--x--x--|
E|--7--7--7--7-/-6--6--6--6-/-4--4--4--4-/-6--6--6--6--|


Chorus    x1

e|-------------| e|-------------| e|-------------| e|--------------|
B|--0---0---7--| B|--0---0---7--| B|--0---0---7--| B|--0---0---11--|
G|-------------| G|-------------| G|-------------| G|--------------|x2
D|-----9-------| D|-----8-------| D|-----6-------| D|-----9--------|
A|-------------| A|-------------| A|-------------| A|--------------|
E|-------------| E|-------------| E|-------------| E|--------------|

Chorus    x2

e|-----------------------------------------------------|
B|-----------------------------------------------------|
G|-----------------------------------------------------|
D|--9--9--9--9-/-9--9--9--9-/-6--6--6--6-/-9--9--9--9--|    x3
A|--x--x--x--x-/-x--x--x--x-/-x--x--x--x-/-x--x--x--x--|
E|--7--7--7--7-/-6--6--6--6-/-4--4--4--4-/-6--6--6--6--|


e|------------------------------|
B|------------------------------|
G|------------------------------|
D|--9--9--9--9-/-9--9--9--9-/-9-|
A|--x--x--x--x-/-x--x--x--x-/-x-|
E|--7--7--7--7-/-6--6--6--6-/-7-|
Comments