Blink 182 - I Miss You Chords & Tabs

 

I Miss You Chords & Tabs

Blink 182 Chords & Tabs

Version: 5 Type: Tab 0 ratings
1 star 2 stars 3 stars 4 stars 5 stars
comments

I Miss You Tab

   
-------------------------------------------------------------------------------
			     Blink 182 - I Miss You
-------------------------------------------------------------------------------
Tabbed by: Darren Lueptow
Email: wiener3001@hotmail.com

Tuning: Half-Step Down

Comments: Please tune your guitar a half-step down to play this.
I'm not sure if the real song is tuned a half-step down but it's how I tabbed it. Thanks! :)



Intro: 

e|-------------------------------------------------------------------------------------
B|-------------------------------------------------------------------------------------
G|-5-5-/-9-9---5-5-/-9-9---5-5-/-9-9---5-5-/-9-9-\-5----------------------------------- x3
D|-x-x-/-x-x---x-x-/-x-x---x-x-/-x-x---x-x-/-x-x-\-x-----------------------------------
A|-3-3-/-7-7---3-3-/-7-7---3-3-/-7-7---3-3-/-7-7-\-3-----------------------------------
E|-x-x-/-8-8---x-x-/-8-8---x-x-/-8-8---x-x-/-8-8-\-x-----------------------------------

Mark Verse:

e|-------------------------------------------------------------------------------------
B|-------------------------------------------------------------------------------------
G|-5-5-/-9-9---5-5-/-9-9---5-5-/-9-9---5-5-/-9-9-\-5----------------------------------- x3
D|-x-x-/-x-x---x-x-/-x-x---x-x-/-x-x---x-x-/-x-x-\-x-----------------------------------
A|-3-3-/-7-7---3-3-/-7-7---3-3-/-7-7---3-3-/-7-7-\-3-----------------------------------
E|-x-x-/-8-8---x-x-/-8-8---x-x-/-8-8---x-x-/-8-8-\-x-----------------------------------

Mini-Bridge:

e|-------------------------------------------------------------------------------------
B|-------------------------------------------------------------------------------------
G|-5-5-5-5---7-7-7-7---9-9-9-9---14-14-14-14---16-16-16-16---18-18-18-18---19-19-19-19-
D|-X-X-X-X---X-X-X-X---X-X-X-X---X--X--X--X----X--X--X--X----X--X--X--X----X--X--X--X-- x2
A|-3-3-3-3---5-5-5-5---7-7-7-7---12-12-12-12---14-14-14-14---16-16-16-16---17-17-17-17-
E|-------------------------------------------------------------------------------------

Tom Verse:
[ Tab from: http://www.guitartabs.cc/tabs/b/blink_182/i_miss_you_tab_ver_5.html ]
e|-------------------------------------------------------------------------------------
B|-------------------------------------------------------------------------------------
G|-5-5-/-9-9---5-5-/-9-9---5-5-/-9-9---5-5-/-9-9-\-5----------------------------------- x4
D|-x-x-/-x-x---x-x-/-x-x---x-x-/-x-x---x-x-/-x-x-\-x-----------------------------------
A|-3-3-/-7-7---3-3-/-7-7---3-3-/-7-7---3-3-/-7-7-\-3-----------------------------------
E|-x-x-/-8-8---x-x-/-8-8---x-x-/-8-8---x-x-/-8-8-\-x-----------------------------------

1st Chorus:

e|-------------------------------------------------------------------------------------
B|-------------------------------------------------------------------------------------
G|-5-5-5-5-5-5--------------5-5-5-5-5-5---------7-7-7-7-7-7-----10-10-10-10-10-10------
D|-5-5-5-5-5-5--------------5-5-5-5-5-5---------7-7-7-7-7-7-----10-10-10-10-10-10------ x2
A|-3-3-3-3-3-3--------------5-5-5-5-5-5---------5-5-5-5-5-5-----8--8--8--8--8--8-------
E|-------------------------------------------------------------------------------------
   Don't waste your time On me, you're already the voice inside my head. (Miss you, miss you)

2nd Mini-Bridge:

e|-------------------------------------------------------------------------------------
B|-------------------------------------------------------------------------------------
G|-5-5-/-9-9---5-5-/-9-9-\-5-----------------------------------------------------------
D|-x-x-/-x-x---x-x-/-x-x-\-x----------------------------------------------------------- x4
A|-3-3-/-7-7---3-3-/-7-7-\-3-----------------------------------------------------------
E|-x-x--/8-8---x-x-/-8-8-\-x-----------------------------------------------------------


2nd Chorus:

e|-------------------------------------------------------------------------------------
B|-------------------------------------------------------------------------------------
G|-5-5-5-5-5-5--------------5-5-5-5-5-5---------7-7-7-7-7-7-----10-10-10-10-10-10------
D|-5-5-5-5-5-5--------------5-5-5-5-5-5---------7-7-7-7-7-7-----10-10-10-10-10-10------ x4
A|-3-3-3-3-3-3--------------5-5-5-5-5-5---------5-5-5-5-5-5-----8--8--8--8--8--8-------
E|-------------------------------------------------------------------------------------
   Don't waste your time On me, you're already the voice inside my head.


Outro:

e|-------------------------------------------------------------------------------------
B|-------------------------------------------------------------------------------------
G|-5-5-5-5---5-5-5-5---9-9-9-9---14-14-14-14---16-16-16-16---18-18-18-18---19-19-19-19-
D|-X-X-X-X---X-X-X-X---X-X-X-X---X--X--X--X----X--X--X--X----X--X--X--X----X--X--X--X-- x4
A|-3-3-3-3---5-5-5-5---7-7-7-7---12-12-12-12---14-14-14-14---16-16-16-16---17-17-17-17-
E|-------------------------------------------------------------------------------------


| /  slide up
| \  slide down
| h  hammer-on
| p  pull-off
| ~  vibrato
| +  harmonic
| x  Mute note
===============================================================================
Comments