Blink 182 - I Miss You Chords & Tabs

 

I Miss You Chords & Tabs

Blink 182 Chords & Tabs

Version: 4 Type: Tab 0 ratings
1 star 2 stars 3 stars 4 stars 5 stars
comments

I Miss You Tab

   
 "I Miss You" Blink 182

Legend:

/ = Slide Up
\ = Slide Down

(Pretty Basic Huh?)

For the Intro, Toms most likely play it like this...

Intro:
e|---------------|
B|---------------|
G|-4-4-/-8-8-\-4-|
D|-x-x-/-x-x-\-x-| x12
A|-2-2-/-6-6-\-2-|
E|---------------|

But personally, I like to play it like this...

e|-----------------|
B|-----------------|
G|-----------------|
D|-9-9-/-13-13-\-9-| x12
A|-x-x-/--x--x-\-x-|
E|-7-7-/-11-11-\-7-|

It defines the slide alot because it's being played on heavier strings.
Plus it's easier to play.

Verse:
e|---------------|           e|-----------------|
B|---------------|           B|-----------------|
G|-4-4-/-8-8-\-4-|           G|-----------------|
D|-x-x-/-x-x-\-x-| x12   or  D|-9-9-/-13-13-\-9-| x12
A|-2-2-/-6-6-\-2-|           A|-x-x-/--x--x-\-x-|
E|---------------|           E|-7-7-/-11-11-\-7-|

Chorus:
e|---------------------------------------------------------|
B|---------------------------------------------------------|
G|-4444/6666/8888/9999/11111111/13131313/15151515/16161616-|
D|-xxxx/xxxx/xxxx/xxxx/xxxxxxxx/xxxxxxxx/xxxxxxxx/xxxxxxxx-| x2
A|-2222/4444/6666/7777/-9-9-9-9/11111111/13131313/14141414-|
E|---------------------------------------------------------|

2nd Verse:
e|---------------|           e|-----------------|
B|---------------|           B|-----------------|
G|-4-4-/-8-8-\-4-|           G|-----------------|
D|-x-x-/-x-x-\-x-| x12   or  D|-9-9-/-13-13-\-9-| x12
A|-2-2-/-6-6-\-2-|           A|-x-x-/--x--x-\-x-|
E|---------------|           E|-7-7-/-11-11-\-7-|

2nd Chorus:
e|---------------------------------------------------------|
B|---------------------------------------------------------|
G|-4444/6666/8888/9999/11111111/13131313/15151515/16161616-|
D|-xxxx/xxxx/xxxx/xxxx/xxxxxxxx/xxxxxxxx/xxxxxxxx/xxxxxxxx-| x2
A|-2222/4444/6666/7777/-9-9-9-9/11111111/13131313/14141414-|
E|---------------------------------------------------------|
[ Tab from: http://www.guitartabs.cc/tabs/b/blink_182/i_miss_you_tab_ver_4.html ]
Bridge:
e|---------------|           e|-----------------|
B|---------------|           B|-----------------|
G|-4-4-/-8-8-\-4-|           G|-----------------|
D|-x-x-/-x-x-\-x-| x8   or   D|-9-9-/-13-13-\-9-| x8
A|-2-2-/-6-6-\-2-|           A|-x-x-/--x--x-\-x-|
E|---------------|           E|-7-7-/-11-11-\-7-|

3rd Chorus:
e|---------------------------------------------------------|
B|---------------------------------------------------------|
G|-4444/6666/8888/9999/11111111/13131313/15151515/16161616-|
D|-xxxx/xxxx/xxxx/xxxx/xxxxxxxx/xxxxxxxx/xxxxxxxx/xxxxxxxx-| x4
A|-2222/4444/6666/7777/-9-9-9-9/11111111/13131313/14141414-|
E|---------------------------------------------------------|

Fade...

Lyrics:

[Mark]
Hello there, the angel from my nightmare
The shadow in the background of the morgue
The unsuspecting victim of darkness in the valley
We can live like Jack and Sally if we want
Where you can always find me and we'll have Halloween on Christmas
And in the night we'll wish this never ends
We'll wish this never ends

(I Miss You, Miss You)
(I Miss You, Miss You)

[Tom]
Where are you? And I'm so sorry
I can not sleep, I can not dream tonight
I need somebody and always, this sick strange darkness
Comes creeping on so haunting everytime
And as I stared I counted webs from all the spiders
Catching things and eating there insides
Like indecision to call you and hear your voice of treason
Will you come home and stop this pain tonight?
Stop this pain tonight

Don't waste your time on me, you're already
The voice inside my head
(I Miss You, Miss You)
Don't waste your time on me, you're already
The voice inside my head
(I Miss You, Miss You)

Don't waste your time on me, you're already
The voice inside my head
(I Miss You, Miss You)
Don't waste your time on me, you're already
The voice inside my head
(I Miss You, Miss You)
Don't waste your time on me, you're already
The voice inside my head
(I Miss You, Miss You)
Don't waste your time on me, you're already
The voice inside my head
(I Miss You, Miss You)

Tabbed By: DylanDevoe
E-mail: dylandevoe@hotmail.com

Thanks
Comments