Blink 182 - I Miss You Chords & Tabs

 

I Miss You Chords & Tabs

Blink 182 Chords & Tabs

Version: 1 Type: Tab 5 ratings
1 star 2 stars 3 stars 4 stars 5 stars
comments

I Miss You Tab

I Miss You
/=Slide
x=Mute
Intro/Verse
1---------------------------------------------------
2---------------------------------------------------
3---4-/-8--8-8--4-/-8--8-8--4-/-8--8-8--4-/-8--8-8--
4---x-/-x--x-x--x-/-x--x-x--x-/-x--x-x--x-/-x--x-x--
5---2-/-6--6-6--2-/-6--6-6--2-/-6--6-6--2-/-6--6-6--
6--------------------------------------------------- X6
[ Tab from: http://www.guitartabs.cc/tabs/b/blink_182/i_miss_you_tab.html ]
Chorus
1-----------------------------------------------------------------
2-----------------------------------------------------------------
3---4-4-4-4--6-6-6-6-8-8-8-8-11-11-11-11--4-4-4-4-4-4-4-4---------
4---x-x-x-x--x-x-x-x-x-x-x-x-x--x--x--x---x-x-x-x-x-x-x-x---------
5---2-2-2-2--4-4-4-4-6-6-6-6-9--9--9--9---2-2-2-2-2-2-2-2-X2------
6-----------------------------------------------------------------  X2

Intro/Verse
Chorus
Intro/Verse
Chorus
Intro
Chorus
Chorus
Chorus
Chorus
Chorus
Chorus
Fades Out
Comments