Blink 182 - I Miss You Live Chords & Tabs

 

I Miss You Live Chords & Tabs

Blink 182 Chords & Tabs

Version: 2 Type: Tab 0 ratings
1 star 2 stars 3 stars 4 stars 5 stars
comments

I Miss You Live Tab

Artist: Blink 182
Title: I Miss You (Live)
Album: Blink 182
By JosÚ Jes¨s Eddy Silva Guajardo: rayadodecorazon1@hotmail.com
                                   darkwarrior_182@hotmail.com


Intro/Verse/Interlude
e|---------------|---------------|---------------|-----------------|
B|---------------|---------------|---------------|-----------------|
G|--4-4/8-8-8-8--|--4-4/8-8-8-8--|--4-4/8-8-8-8--|--4-4/8-8-8-8\4--|
D|--x-x/x-x-x-x--|--x-x/x-x-x-x--|--x-x/x-x-x-x--|--x-x/x-x-x-x\x--|   x4
A|--2-2/6-6-6-6--|--2-2/6-6-6-6--|--2-2/6-6-6-6--|--2-2/6-6-6-6\2--|
E|---------------|---------------|---------------|-----------------|


e|---------------|
B|---------------|
G|--4~~~~~~~~~---|
D|--x~~~~~~~~~---|
A|--2~~~~~~~~~---|
E|---------------|


e|-----------------------------------------------------|
B|-----------------------------------------------------|
G|-----------------------------------------------------|
D|--9--9--9--9---9--9--9--9---6--6--6--6---9--9--9--9--|    x4
A|--x--x--x--x---x--x--x--x---x--x--x--x---x--x--x--x--|
E|--7--7--7--7---6--6--6--6---4--4--4--4---6--6--6--6--|
[ Tab from: http://www.guitartabs.cc/tabs/b/blink_182/i_miss_you_live_tab_ver_2.html ]
Coro
e|-------------------------------------------|
B|-------------------------------------------|
G|-------------------------------------------|
D|--9--------9-------9-------4-------9-------|     x3
A|--x-(x10)--x-(x5)--x-(x5)--x-(x10)-x-(x10)-|
E|--7--------6-------7-------2-------6-------|
Ritmo  \/ \/ /\ /\ \/ \/ /\ /\ \/ /\


e|---------------|
B|---------------|
G|--4~~~~~~~~~---|
D|--x~~~~~~~~~---|
A|--2~~~~~~~~~---|
E|---------------|


e|---------------|
B|--0---0---7~~~-|
G|---------------|
D|-----9---------|    x8
A|---------------|
E|---------------|

Coro
e|-------------------------------------------|
B|-------------------------------------------|
G|-------------------------------------------|
D|--9--------9-------9-------4-------9-------|     x4
A|--x-(x10)--x-(x5)--x-(x5)--x-(x10)-x-(x10)-|
E|--7--------6-------7-------2-------6-------|
Ritmo  \/ \/ /\ /\ \/ \/ /\ /\ \/ /\



e|-----------------------------------------|
B|-----------------------------------------|
G|-----------------------------------------|
D|--9--9--9--9--9--9--9--9------------9----|
A|--x--x--x--x--x--x--x--x------------x----|
E|--7--7--7--7--6--6--6--6------------7----|
Comments