Blink 182 - I Miss You Live Chords & Tabs


I Miss You Live Chords & Tabs

Blink 182 Chords & Tabs

Version: 1 Type: Tab 0 ratings
1 star 2 stars 3 stars 4 stars 5 stars

I Miss You Live Tab

Artist: Blink 182
Song: I Miss You (Live)
Tabbed By: Andrew Wareing

Capo 2nd Fret
Standard Tuning

Intro - Clean
e------------------		e--------------------			
B------------------		B--------------------
G------------------		G--------------------
D--9--13-13-13-13--		D--9--13-13-13-13--9-
A--x--x--x--x--x---		A--x--x--x--x--x---x-
E--7--11-11-11-11--	x3	E--7--11-11-11-11--7-	x1
[ Tab from: ]
Repeat Intro above for verse but Tom changes the way he plays it as follows:

Verse 1 - Clean
e---------------		e-----------------			
B---------------		B-----------------
G---8--8--8--8--		G---8--8--8--8----
D---x--x--x--x--		D---x--x--x--x----
A---6--6--6--6--		A---6--6--6--6----
E-7-7--7--7--7--	x3	E-7-7--7--7--7-7--	x1

Repeat whole verse riff three times

Chorus 1 - Heavy Distortion (or Fuzz and Phaser Together)