Blink 182 - I Miss You Chords & Tabs

 

I Miss You Chords & Tabs

Blink 182 Chords & Tabs

Version: 6 Type: Bass Tab

I Miss You Bass Tab

This is the intro/verse
G------------------------------
D------------------------------
A---2-2---1-1----------1-1-----
E-0-----2-----2-4-4--2---------

Chorus
G------------------------------
D------------------------------
A-2--4--6--9--7(let ring)------
E------------------------------

OR
[ Tab from: http://www.guitartabs.cc/tabs/b/blink_182/i_miss_you_btab_ver_6.html ]
2nd Option for Chorus (the above way is correct, but this can sound more appealing)
G------------------------------
D------------------------------
A-2--4--6--9--7--6--4--2-------
E------------------------------

Bridge
G------------------------------
D------------------------------
A----------1-1----2-2----1-1---
E-2-4-4--2------0------2-------

and then you go back to the chorus
*Keep in mind that this song is played with an upright bass so if you can't get
the tone right when your playing it with an electric that why.
any questions?  LTJ1228@yahoo.com