Blink 182 - I Miss You Chords & Tabs

 

I Miss You Chords & Tabs

Blink 182 Chords & Tabs

Version: 2 Type: Bass Tab 3 ratings
1 star 2 stars 3 stars 4 stars 5 stars
comments

I Miss You Bass Tab

Song:I miss you
Artist:Blink 182
Album:Blink 182
Tabbed by Hugh Jwang (Squier_by_fender@hotmail.com)

Ok the tab I found of this was right for the verse but thechorus was wrong so here is the correct version
also this is done with a fretless bass so if you want it to sound right you can bend instead of sliding.


Verse
G|------------------------------------------------------|
D|------------------------------------------------------|
A|------------------------------------------------------|
E|-----6/7-77----5/6-66----3/4-44----5/6-66----|
[ Tab from: http://www.guitartabs.cc/tabs/b/blink_182/i_miss_you_btab_ver_2.html ]
Chorus
G|------------------------------------------------------|
D|------------------------------------------------------|
A|---------------6------9------7-----------------------|
E|-----7----9-------------------------------------------|

the part of the second chorus do this then go right back to the verse
G|------------------------------------------------------|
D|------------------------------------------------------|
A|------------------------------------------------------|
E|-----3/4-44-----5/6-66----------------------------|


questions or comments e-mail me.
Comments