Blink 182 - Heres Your Letter Chords & Tabs

 

Heres Your Letter Chords & Tabs

Blink 182 Chords & Tabs

Version: 7 Type: Tab 0 ratings
1 star 2 stars 3 stars 4 stars 5 stars
comments

Heres Your Letter Tab

  INTRO
E---------------------------------------------------------------------------|
B---------------------------------------------------------------------------|
G----9----------------------------------------------------------------------|
D----7----7----11---4---------7---------2-----------------------------------|
A----9----5----0----2----4----5----4----2-----------------------------------|
E----9---------9---------2---------2----------------------------------------|
Strum each of these about 7 times
                                                                          VERSE
E---------------------------------------------------------------------------|
B---------------------------------------------------------------------------|
G---------------------------------------------------------------------------|
D---------7---------4---------7---------------------------------------------|
A----4----5----7----2----4----5----7----------------------------------------|
E----2---------5---------2---------5----------------------------------------|
   Cut skin bone sleep lone voice dark
(These are the words you change chords on)
E---------------------------------------------------------------------------|
B---------------------------------------------------------------------------|
G---------------------------------------------------------------------------|
D-----------7-----------4-----------7---------------------------------------|
A-----4-----5-----7-----2-----4-----5-----7---------------------------------|
E-----2-----------5-----------2-----------5---------------------------------|
    Lose  self  eyes  voice  night world apart
(These are the words the chords change on, also keep strumming the last chord until the 
also strum the first part of the 2 verses 3 times before you switch to the second chord 
the verse)

CHORUS
E---------------------------------------------------------------------------|
B---------------------------------------------------------------------------|
G---------------------------------------------------------------------------|
D------------2--------------7-----------------------------------------------|
A----7---6---2---4----------5-----------------------------------------------|
E----5---4-------2----------------------------------------------------------|
               Fuck i cant let this kill me...
(You gott switch the first 4 chords fast then keep strumming till you repaet the chorous 
the chorus 2 times)(The word the chord is over is the word you switch on)

INTRO(agian)
E---------------------------------------------------------------------------|
B---------------------------------------------------------------------------|
G----9----------------------------------------------------------------------|
D----7----7----11---4---------7---------2-----------------------------------|
A----9----5----0----2----4----5----4----2-----------------------------------|
E----9---------9---------2---------2----------------------------------------|
Strum each of these about 7 times

[ Tab from: http://www.guitartabs.cc/tabs/b/blink_182/heres_your_letter_tab_ver_7.html ]
VERSE
E---------------------------------------------------------------------------|
B---------------------------------------------------------------------------|
G---------------------------------------------------------------------------|
D---------7---------4---------7---------------------------------------------|
A----4----5----7----2----4----5----7----------------------------------------|
E----2---------5---------2---------5----------------------------------------|
   Cut skin bone sleep lone voice dark
(These are the words you change chords on)
E---------------------------------------------------------------------------|
B---------------------------------------------------------------------------|
G---------------------------------------------------------------------------|
D-----------7-----------4-----------7---------------------------------------|
A-----4-----5-----7-----2-----4-----5-----7---------------------------------|
E-----2-----------5-----------2-----------5---------------------------------|
    Lose  self  eyes  voice  night world apart
(These are the words the chords change on, also keep strumming the last chord until the 
also strum the first part of the 2 verses 3 times before you switch to the second chord 
the verse)

CHORUS
E---------------------------------------------------------------------------|
B---------------------------------------------------------------------------|
G---------------------------------------------------------------------------|
D------------2--------------7-----------------------------------------------|
A----7---6---2---4----------5-----------------------------------------------|
E----5---4-------2----------------------------------------------------------|
               Fuck i cant let this kill me...
(You gott switch the first 4 chords fast then keep strumming till you repaet the chorous 
the chorus 3times)(The word the chord is over is the word you switch on)

THIS IS KIND OF LIKE A VERSE BUT IF YOU NO THIS SONG YOU NO WHAT PART THIS IS
E---------------------------------------------------------------------------|
B---------------------------------------------------------------------------|
G---------------------------------------------------------------------------|
D----7----7----7----7----7----7----7----7----------2----7-------------------|
A----5----4----5----4----5----4----5----4-----4----2----5-------------------|
E---------------------------------------------2-----------------------------|
                        IM   MY   DO   IM    THE  IS   DO YOU STILL FEEL...
(Once agiain the word under the chord is the word you change on you wanna just keep 
back and forth the the 7-5 7-4 until you get to the switch which is at THE THen switch
at IS DO and keep strumming that last chord until you get to the chorus agian, Also the
word you switch on is basiaclly the first word of every line of the lyrics so dont get
cunfused)


CHORUS
E---------------------------------------------------------------------------|
B---------------------------------------------------------------------------|
G---------------------------------------------------------------------------|
D------------2--------------7-----------------------------------------------|
A----7---6---2---4----------5-----------------------------------------------|
E----5---4-------2----------------------------------------------------------|
               Fuck i cant let this kill me...
(You gott switch the first 4 chords fast then keep strumming till you repaet the chorous 
the chorus 3times)(The word the chord is over is the word you switch on)

INTRO (yet agian)
E---------------------------------------------------------------------------|
B---------------------------------------------------------------------------|
G----9----------------------------------------------------------------------|
D----7----7----11---4---------7---------2-----------------------------------|
A----9----5----0----2----4----5----4----2-----------------------------------|
E----9---------9---------2---------2----------------------------------------|
Strum each of these about 7 times
Comments