Blink 182 - Heres Your Letter Chords & Tabs

 

Heres Your Letter Chords & Tabs

Blink 182 Chords & Tabs

Version: 5 Type: Tab 0 ratings
1 star 2 stars 3 stars 4 stars 5 stars
comments

Heres Your Letter Tab

   
artist: blink-182
song: here's your letter
album: untitled
tabbed by: simon (stupeit@networld.at)

there are already some tabs of this song, but for myself i can
say that they are not correct. i can't say my tab is correct because 
on this one they recorded so many tracks that it's difficult to hear 
all parts. but i tabbed bass and guitar becuz the bass tab on the site
is not absolutely correct. so here it is:

GUITAR INTRO:
e|----------------------------|
h|----------------------------|
g|----------------------------| 1st time
d|4------7------11-----9------|
a|0-(8x)-0-(8x)-0-(8x)-0-(8x)-|
e|2------5------9------7------|

e|--------------|
h|--------------|
g|--------------| 2nd time
d|4------7------|
a|0-(8x)-0-(24x)|
e|2------5------|

BASS Intro:

g|--------------------------------|
d|--------------------------------|
a|--------55555555----------------| 1st time
e|22222222--------5555555577777777|

g|--------------------------------|
d|--------------------------------|
a|--------55555555----------------| 2nd time
e|22222222--------5555555555555555|

Verse:

BASS: (intro with cool rythm -> figure out yourself)
g|--------------------------------|
d|--------------------------------|
a|--------55555555----------------| 1st time
e|22222222--------5555555577777797|

g|--------------------------------|
d|--------------------------------|
a|--------55555555----------------| 2nd time
e|22222222--------5555555555555555|

GUITAR:
[ Tab from: http://www.guitartabs.cc/tabs/b/blink_182/heres_your_letter_tab_ver_5.html ]
e|---------------------|
h|---------------------|
g|---------------------| 1st time
d|---------------------|
a|4-(8x)-7-(16x)-9-(8x)|
e|2------5-------7-----|
pm-      -       -
e|---------------------|
h|---------------------|
g|---------------------| 2nd time
d|--------------7------|
a|4-(8x)-7-(8x)-x-let ring->(16x)
e|2------5------5------|
pm-      -

CHORUS:

GUITAR:
e|----------------------|
h|----------------------|
g|----------------7-----|
d|----------------x(16x)|
a|77766622244444445-----|
e|5554440002222222------|

BASS:
g|---------------------------------|
d|---------------------------------|
a|----------------55555555555555555|-> also a special rythm
e|5554442220000000-----------------|

then:
intro
verse
chorus

INTERLUDE part 1:

Guitar:     
e|-------|   
h|-------|
g|-------|
d|7------|
a|x-(16x)|
e|5------|

BASS:
g|--------------------------------|
d|--------------------------------|
a|----------------5555555555555555|
e|5555555555555555----------------|

INTERLUDE part 2:

Guitar:
e|------------------------|
h|------------------------|
g|------------------------|
d|------------------------|
a|4-(16x)-7-(16x)-7-(32x)-|
e|2-------4-------5-------|

BASS:
g|-------------------------------------------------------------|
d|-------------------------------------------------------------|
a|-------------------------------------------------------------|
e|2222222222222224444444444444445555555555555555555555555555555|

then:
chorus
intro

any questions or comments, e-mail me (stupeit@networld.at)
Comments